Crazy

Kooks

-------------------------------------------------------------------------------

------------------------------covered by the kooks---------------------------

 G
Also, this fill is played by gtr I during the G chord a lot of times throughout the song.

e|--------------------|
B|--------------------|
G|---0----------------|
D|---0h2----0---------|
A|--------------------|
E|-3------------------|


Intro, gtr II
e|------3--------7-------5--3-------3-------5p3--------(3)------7-------5-3-|
B|----------------------------------------3---------------------------------|
G|--3h4-----5/-7----3/-5----4---3h4-----4-------4---(4)----5/-7----3/-5---4-|
D|--------------------------------------------------------------------------|
A|--------------------------------------------------------------------------|
E|--------------------------------------------------------------------------|
e|------3-------5p3---------3------7-------5-3-------3---------7-------5-3--|
B|------------3-------------------------------------------------------------|
G|--3h4-----4-------4---3h4----5/-7----3/-5--4---3h4-------5/-7----3/-5--4--|
D|--------------------------------------------------------------------------|
A|--------------------------------------------------------------------------|
E|--------------------------------------------------------------------------|


Verse:
 BmD
    I remember when, I remember, I remember when I lost my mind
 G
There was something so pleasant about that phase

Even your emotions had an echo
 F#7
    In so much space

 Bm
    And when you're out there, out there
 D
I was out of touch babe
 G
But it wasn't because I didn't know enough though
 F#7
I just knew too much

Chorus:
 Bm
Do you think I'm crazy
 G
Do you think I'm crazy
 Em
Do you think I'm crazy
 Bm
Do you think I'm crazy..

 B7G
   I heard that youve been having the time of your life
 B7G
dont think twice, dont think twice, that's my advice to you babe
 BmD
    come on now, who do you, who do you, who do you think you are
 G
Ha ha bless your soul  
 F#7
You really think you're in control

 Bm
I think you're crazy
 D
I think you're crazy
 G
I think you're crazy
 F#7
I think you're crazy baby

 B7
   My heroes had the heart
 G
to lose their lives out on a limb
 B7
And     all I remember
 G
Is thinking I wanna be like them

 Bm
Do you think I'm crazy
 D
Do you think I'm crazy
 GEm
Do you think I'm  crazy  
 Bm
Do you think I'm crazy, child

Crazy covered by the Kooks:
http://www.youtube.com/watch?v=IJdXFfiSVZ8&feature=related

| / slide up
| \ slide down
| h hammer-on
| p pull-off
| ~ vibrato
| + harmonic
| x Mute note
===============================================================================


B7 Bm D Em F#7 G
variations - click chord images
Transpose chords:
Tuning:
Cool service:
View: Size:
A  A  A
Rating:
Layout:
  • Currently 3.1/5 Stars.
  • 1
  • 2
  • 3
  • 4
  • 5
 
Accuracy:
  • Currently 2.3/5 Stars.
  • 1
  • 2
  • 3
  • 4
  • 5
 
click stars to rate
Chordie recommends:
Learn to play guitar with video-based, online guitar lessons at JamPlay.com
Songbook:
Login to add this song to your songbook
Support the artist
Preview/buy this song
MSN Music
Why this non-profit ad?

 
login to add comments/video/corrections