Guitar Tabs, Chords and Lyrics
Major upgrade!! After one year development the new version of Chordie is now online! Please give feedback.


See the World   The Kooks

 
 --------------

 


 Intro & Verse: (Hugh Lead)


 

 
 --------------

 


 (G) (A) (G) (A) (Bm) (Av2) (Bm) (Av2)


 

 
 e|------------------------------------------------|
 B|--12----14----12----14----15----14----15----14--|
 G|--12----14----12----14----14----14----14----14--| repeat
 D|--x-----x-----x-----x-----x-----x-----x-----x---|
 A|--10----12----10----12----14----12----14----12--|
 E|------------------------------------------------|
 ------

 


 Verse: (Luke Rhythm)


 

 
 ------

 


 [G] Do you [A]want to see the [G]world?


 Do you [A]want to see the [Bm]world?


 A(v2) Bm


 Do you want to see the world?


 A(v2) G


 In a different way, yeah


 


 

 
 -----------

 


 Pre-Chorus: (Both Guitars)


 

 
 -----------

 


 


 Before Going into the Pre-chorus Hugh plays over the *G chord with:


 e|--10---|


 B|--12---|


 

 
 G|--x----|
 D|--x----|

 


 A|--10---|


 

 
 E|-------|

 


 


 *G A(v3) Em Bm


 I remember how we used to sing


 Writing [D]poems in your bed [G]sit


 Finding time to be the [E]passenger


 But there you are you never saw me [Gmaj7sus4]leave


 


 

 
 -------

 


 Chorus: (Both Guitars)


 

 
 -------

 


 [Gmaj7sus4] But there you go you're sailing [G]away


 And you [Bm]know


 You never come [G]away


 Yeah but you [Bm]should


 You never lie to [G]me


 Yeah but I [Bm]will


 Never come [G]away


 Yeah but you [Bm]should


 


 [-----]Solo: (Strumming Not Shown)


 [-----] (G, A, G, A, Bm, Av2, Bm, Av2)


 

 
 e|----------------------------|
 B|--10----------10-9--8--7----|
 G|--11----------11-10-9--7----|
 D|--x-----------x--x--x--x----|
 A|--9-----------9--8--7--5----|
 E|----------------------------|

 


 


 Verse x1


 


 Pre-chorusx1


 


 

 
 ---------

 


 Chorus 2: (Both Guitars)


 

 
 --------- 

 


 [Gmaj7sus4] But there you were you're sailing away, there you were![G]


 Noooo oh [Bm]No


 You never come [G]away


 Yeah but you [Bm]should


 You never lie to [G]me


 Yeah but I [Bm]will


 Never come [G]away


 Yeah but you [Bm]should


 


 

 
 ------

 


 Outro: (Strumming Not Shown)


 

 
 ------

 


 [(G)] [(F#m)] [(Bm)]  

 
 e|--10----9----------|
 B|--12----10----7----|
 G|--x-----x-----7----| repeat till end
 D|--x-----x-----x----|
 A|--10----10----x----|
 E|--------------7b---|


Important: The song above is NOT stored on the Chordie server. The original song is hosted at www.guitaretab.com. Chordie works as a search engine and provides on-the-fly formatting. Chordie does not index songs against artists'/composers' will. To remove this song please click here.

This song is displayed as text-only. Transposing and tuning is only available for chordpro-songs.
Rate #4 of 12 versions

Jango Player

Login - add to songbook

SHARE PAGE  




You need to log in to post comments