Guitar Tabs, Chords and Lyrics


ray   Maccabees



Standard tuning 
/=slide
b=bend

intro
Guitar 1.
------------------------------------|
------------------------------------|
---------  -------------------------|
------7-----7-----7-----7 7 7-------|
--9-9---9-9---9-9---9-9-------10-10-|
------------------------------------|

(*)Guitar 2.(comes in after guitar 1 plays the above tab 4 times)
-----------------------------------|
-----------------------------------|
--7---7-----7---7--/11 9-----------|
----7---------7--------------------|
---------9-------------------------|
-----------------------------------|

repeat the tab for guitar 2. 4 times, then
Main riff.
Guitar 1.
-----------------------------------------------------------------------|
-14-14-12-14-14-12-14-14-12-14-15-14-10-10-10-12-12-12-14-14-14-15-15--|
-11-11-11-11-11-11-11-11-11-11-11-11-11-11-11-11-11-11-11-11-11-11-11--|
-----------------------------------------------------------------------|
-----------------------------------------------------------------------|
-----------------------------------------------------------------------|

Guitar 2.
-----------------------------------------------------------------------|
-----------------------------------------------------------------------|
-6-6-6-6-6-6-6-6-6-6-6-6-6-6-6-6-6-6-----------------------------------|
-4-4-4-4-4-4-4-4-4-4-4-4-4-4-4-4-4-4-7-7-7-7-7-7-7-7-7-7-7-7-7-7-7-7---|
-------------------------------------5-5-5-5-5-5-5-5-5-5-5-5-5-5-5-5---|
-----------------------------------------------------------------------|

verses.
------------------------|
------------------------|
-6(x16)---7---7---7---7-|
-4------7---7---7---7---| x2
------------------------|
------------------------|

then,
------------------------------|
10-10-10-10-10-10-10----------|
11-11-11-11-11-11-11--7(x16---| x2
11-11-11-11-11-11-11--0-------|
-9--9--9--9--9--9--9--0-------|
------------------------------|

bridge.(the "she's, got her suspicions" bit)
-----------------------------------------------|
-9-------------------9----10-10-10-10-10-10-10-|
 8-------------------8-----9--9--9--9--9--9--9-|
11------------------11-----7--7--7--7--7--7--7-|
-9-0(palm muted,x16)-9--00---------------------|
-----------------------------------------------|

chorus.
-9(x16) ------------------------|
10------10-10-10-10-10-10-10-10-|
11------11-11-11-11-11-11-11-11-|
11------12-12-12-12-12-12-12-12-|
-9------------------------------|
--------------------------------|

after chorus 1, go back to the intro and start again
after chorus 2, then play this,

---------------------141414-14-141414----5b------------------------------|
---------10-----10---141414-14-141414----7b------------------------------|
-12-11----9-----11---141414-14-141414----7b-----11-11-13-13-14--19-19-19-|
-11-11----7-----11---------------------0--------11-11-11-11-12--16-16-16-|
-10--9-00-----9------------------------0------9--9--9--9--9-12--17-17-17-|
-------------------------------------------------------------------------|

--------------------------|
--------------------------|
---11-9-----11-9-7---7----|
-------------------7------|
-9------7/9-------------9-|
--------------------------|
then basically repeat the part Guitar 2. played at the start of the intro(*)
a few times (listen to the song to figur out how many). then play the main riff twice, 
then finaly play this,

outro.
-------------------|
-7-7-7----7-7-7----|
-6-6-6----7-7-7----| x3
-4-4-4-44-0-0-0-44-|
-4-4-4-00-0-0-0-00-|
-------------------|

and on the 3rd time of playing, a second guitar plays this,
--9--9--9--9--9-|
-10-10-10-10-10-|
-11-11-11-11-11-|
-------------11-|
--------------9-|
----------------|



Important: The song above is NOT stored on the Chordie server. The original song is hosted at www.guitaretab.com. Chordie works as a search engine and provides on-the-fly formatting. Chordie does not index songs against artists'/composers' will. To remove this song please click here.

This song is displayed as text-only. Transposing and tuning is only available for chordpro-songs.

Login - add to songbook

Rating click stars to rate

Layout
Accuracy

Jango Player

SHARE PAGE  




You need to log in to post comments