Dominion Road

Mutton Birds

e----------------------------------------------|

B—--3s4--4--5--4-------------------------------|
G-----------------2--4—4s6--4--4--6--4--1--4---|
D----------------------------------------------|
A----------------------------------------------|
E----------------------------------------------|
e-----------------------------------------|
B-----------------------------------------|
G-------------------9999999---------------|
D----99999----77----9999999----77---------|
A----99999----77----7777777----77---------|
E----77777----55---------------55---------|

 BAEAB
e-----------------------------------------|
B-----------------------------------------|
G----------------------999----------------|
D----99999----77777----999----77----9999--|
A----99999----77777----777----77----9999--|
E----77777----55555-----------55----7777--|


Different strumming pattern to Main Riff

PRE-CHORUS

 BF#EB
e----------------------------------------------|
B—---------------------------------------------|
G-------------------------9999-----------------|
D---99999---44444444444---9999---99------------|
A---99999---44444444444---7777---99------------|
E---77777---22222222222----------77------------|
---------------------------------------------------------------------------


MAIN RIFF X4

 BAEAB
Dominion Road is bending; under it's own weight,
 BAEAB
Shining like a strip, cut from a sheet metal plate,
 B
‘Cos it's just been raining.

MAIN RIFF X1

 BAEA
Jane reached the point where she knew what he meant before he opened his
 B
 mouth,
 BAEAB
He couldn't say the same or he would've guessed she was moving south, with

one of his friends.

 BF#EB
But it's getting better now, he found it in him to forgive,
 BF#EBF#
He walked the city, and he found a place to live – in a halfway house,
 E
halfway down Dominion Road.

MAIN RIFF X2

 BAEAB
He watched Jane's brother sell the house he felt no sense of loss,
 BAEAB
More like a mountain-climber looking back having made it across - the

steepest face.

 BF#EB
Oh but he's still climbing, see him trying to cross the street,
 BF#EBF#
He tests his footing, like he was up ten thousand feet above the clouds,
 E
halfway down Dominion Road.

SOLO
e-------------------------------------------------|
B—--3s4--4--5--4----------------------------------|
G-----------------2--4—4s6--4---------------------|
D-------------------------------------------------|
A-------------------------------------------------|
E-------------------------------------------------|
e----------------------------------------------------------|
B—4--5—-4--7--5--4--4--5--4--7--5--4—-4--5--4--7--5----5---|
G---------------------------------------------------4------|  x4
D----------------------------------------------------------|
A----------------------------------------------------------|
E----------------------------------------------------------|


 BF#EB
But he's getting better now; he rests his head on the windowsill,
 BF#EB
He watches the city, sees the antennae's in the hills from the halfway
 F#E
house, halfway down Dominion Road.

 BF#AE
Halfway down, halfway down, halfway down Dominion Road.
 BF#AE
Halfway down, halfway down, halfway down Dominion Road………Owaooo

MAIN RIFF X4

The End.

ORDER-

Main Riff x4
Verse
Main Riff x1
Verse
Pre-chorus
Main Riff x2
Verse
Pre-chorus
Solo
Pre-chorus
Bridge???
Main Riff x4

AWESOME SONG!!!

http://www.muttonbirds.co.nz/


A B E F#
variations - click chord images
Transpose chords:
Tuning:
Cool service:
View: Size:
A  A  A
Rating:
Layout:
  • Currently 0/5 Stars.
  • 1
  • 2
  • 3
  • 4
  • 5
 
Accuracy:
  • Currently 0/5 Stars.
  • 1
  • 2
  • 3
  • 4
  • 5
 
click stars to rate
Chordie recommends:
Learn how to play guitar at JamPlay.com
Songbook:
Login to add this song to your songbook
Support the artist
Preview/buy this song
MSN Music
Why this non-profit ad?

 
login to add comments/video/corrections