Simon Says

Pipettes

 G
    Do you wanna play?
 CGAmFDm
 I know a game we could play in the dark in the day
 G
If you know a way, do you wanna play?
 CGAmF
 It's called Simon Says and he says
 DmG
 You've better do what I say, do you wanna play?
 CF
 Simon says you must get on your knees
 CG
 Simon's telling you to beg me please
 FGAmDmG
And if you don't do what I say we can't have any fun     

e|---------------------------------------------|
B|---------------------------------------------|
G|---------------------------------------------|
D|-2-2---0-0------2-5-2-----2------5-----------|
A|-----3-----2-3--------5-5---5--3----2-2-2-3-5|
E|---------------------------------------------|
e|---------------------------------------|
B|---------------------------------------|
G|-----4-4-5p4p2-------------0-----------|
D|-2-2-----------5-2-2h5p2---------------|
A|-------------------------3---2-2-2-3-5-|
E|---------------------------------------|


 CF
 Simon says we've gotta tie you up
 CG
 Simon says those bonds aren't tight enough
 FGAmDmG
And if you don't do what I say we can't have more fun     

 G
 Do you wanna play?
 CGAmFDm
 I know a game we could play in the dark, in the day
 G
If you know a way, do you wanna play?
 CGAmF
 It's called Simon Says and he says
 DmG
 You've better do what I say, do you wanna play?

 CGAmFDm
 I know a game we could play in the dark, in the day
 G
If you know a way, do you wanna play?
 CGAmF
 It's called Simon Says and he says
 DmG
 You've better do what I say, do you wanna play?


Am C Dm F G
variations - click chord images
Transpose chords:
Tuning:
Cool service:
View: Size:
A  A  A
Rating:
Layout:
  • Currently 3.3/5 Stars.
  • 1
  • 2
  • 3
  • 4
  • 5
 
Accuracy:
  • Currently 3.1/5 Stars.
  • 1
  • 2
  • 3
  • 4
  • 5
 
click stars to rate
Chordie recommends:
Learn how to play guitar at JamPlay.com
Songbook:
Login to add this song to your songbook
Support the artist
Preview/buy this song
MSN Music
Why this non-profit ad?

 
login to add comments/video/corrections