Guitar Tabs, Chords and Lyrics


From China With Love   Prize Fighter Inferno



-------------------------------------------------------------------------------
	From China With Love - The Prize Fighter Inferno
-------------------------------------------------------------------------------
Tabbed by: gwilson09
Email: gwilson91@gmail.com

Tuning: Standard

Let ring throughout


e|----------------------------------------|----------------------------0-----------|
B|-------------0----1---------0----1------|-------------0----1--------------0----1-|
G|--------0--------------0--------------0-|--------0--------------0----------------|
D|----------------------------------------|----------------------------------------|
A|---3------------------------------------|---2------------------------------------|
E|----------------------------------------|----------------------------------------|

e|----------------------------------------|----------------------------------------|
B|-------------1----0----1--------------0-|-------------0----1---------0---------0-|
G|--------0-------------------0-----------|--------0-------------------------------|
D|----------------------------------------|----------------------------------------|
A|---0-----------------------------0------|------------------------3--------3------|


Important: The song above is NOT stored on the Chordie server. The original song is hosted at www.guitaretab.com. Chordie works as a search engine and provides on-the-fly formatting. Chordie does not index songs against artists'/composers' will. To remove this song please click here.

This song is displayed as text-only. Transposing and tuning is only available for chordpro-songs.

Login - add to songbook

Rating click stars to rate

Layout
Accuracy

SHARE PAGE  




You need to log in to post comments