Chordie logo


Steady As She Goes   Raconteurs



Ok this is how me and my band
(AGAINST ALL ODDS), play this
song and it sounds fine so
its gotta be.

Gtr.1= lead guitar
Gtr.2= rythm guitar
Ill get bass to you ASAP!

---
    > = the guitars go together
---     exactly how they are lined up

                            Steady as She Goes
                              The Raconteurs


INTRO
Gtr.1
E---------------------------|
B---7-7-6-4--7-7-6-4~-------|
G---------------------------|
D---------------------------|
A---------------------------|
E---------------------------|
Gtr.2
E---------------------------|
B---3-3-2-0--3-3-2-0~-------|
G---------------------------|
D---------------------------|
A---------------------------|
E---------------------------|

PRE-VERSE
Gtr.1
E-------------------------------|
B--4-----2--0--4-----2--0--4----|
G--4-----2--1--4-----2--1--4----|
D--4--4--2--2--4--4--2--2--4-4--|
A-----4-----------4----------4--|
E-----2-----------2----------2--|
Gtr.2                             >
E-------------------------------|
B-------------------------------|
G-------------------------------|
D--9--4--7--2--9--4--7--2-------|
A--9--4--7--2--9--4--7--2-------|
E--7--2--5--0--7--2--5--0-------|

VERSE
Gtr.1
E--------------|
B--4----2-0----|
G--4----2-1----|
D--4-4--2-2----|
A----4---------|
E----2---------|
Repeat X1 then words
come in with it and it
should be X2 until complete

CHORUS
Gtr.1
E-------------------------------------|
B-------------------------------------|
G-444-----222-----444-----222---------|
D-444-444-222-222-444-444-222-222-----|
A-222-444-000-222-222-444-000-222-----|
E-----222-----000-----222-----000-----|
Gtr.2                                  >
E-------------------------------------|
B-------------------------------------|
G-------------------------------------|
D-9-9-4-4-7-7-2-2-9-9-4-4-7-7-2-2-----|
A-9-9-4-4-7-7-2-2-9-9-4-4-7-7-2-2-----|
E-7-7-2-2-5-5-0-0-7-7-2-2-5-5-0-0-----|
[Steady as she goes..........steady...]
Repeat PRE-VERSE and VERSE
then play CHORUS
then (this is CHORUS2)
Gtr.1
E------------------------------------------------------------------------|
B------------------------------------------------------------------------|
G----------2222222-4444444---------2222222-------------------------------|
D--5555555-2222222-4444444-5555555-2222222-2222222-----------------------|
A--5555555-0000000-2222222-5555555-0000000-2222222-----------------------|
E--3333333-----------------3333333---------0000000-----------------------|
Gtr.2                                                                     >
E------------------------------------------------------------------------|
B------------------------------------------------------------------------|
G----------2222222-4444444---------2222222-------------------------------|
D--5555555-2222222-4444444-5555555-2222222-2222222-----------------------|
A--5555555-0000000-2222222-5555555-0000000-2222222-----------------------|
E--3333333-----------------3333333---------0000000-----------------------|
[here we go again...]

Repeat PRE-VERSE, VERSE
then repeat CHORUS,
CHORUS2, PRE-VERSE,
VERSE,
then
INTERLUDE
Gtr.1
E---------------------------|
B---7-7-6-4--7-7-6-4~-------|
G---------------------------|
D---------------------------|
A---------------------------|
E---------------------------|
then repeat
PRE-VERSE, VERSE, INTERLUDE,
then CHORUSX4 (but with different
lyrics).

END ON
Gtr.1
E-----------|
B-----------|
G-----------|
D--7~-------|
A--7~-------|
E--5~-------|
Gtr.2
E-----------|
B-----------|
G-----------|
D--7~-------|
A--7~-------|
E--5~-------|

THATS IT! its a really
simple song. AND A REALLY
CORRECT TAB!!!  see how it
is! it fits perfectly and
sounds great with both guitars!



Important: The song above is NOT stored on the Chordie server. The original song is hosted at www.guitaretab.com. Chordie works as a search engine and provides on-the-fly formatting. Chordie does not index songs against artists/composers will. To remove this song please click here.

This song is displayed as text-only. Transposing and tuning is only available for chordpro-songs.

Login - add to songbook

Rating click stars to rate

Layout
Accuracy

SHARE PAGE  




You need to log in to post comments