Disconnected

Red Jumpsuit Apparatus

 F-133211
 -  x32010
Em - 022000

Intro: G--Am--F x2

Lead:
 GAmF
e|---------------|---------|------------------|
B|-------1--0----|-1--0----|------------------|
G|-0-0-0-------0-|-------2-|-------0----------|
D|---------------|---------|-2--3-----3--2----|
A|---------------|---------|----------------3-|
E|---------------|---------|------------------|


 GAmF
e|---------|---------|-3-3-3-3-3-3-3-8-8-8-8-|
B|-1--0----|-1--0----|-----------------------|
G|-------0-|-------2-|-----------------------|
D|---------|---------|-----------------------|
A|---------|---------|-----------------------|
E|---------|---------|-----------------------|


Verse 1:
 GAmF
   You know that you are
 FGAm
the center of my attention 
 FC
and you leave me no choice 
 GAmF
   Tripping on to the floor
 GAm
looking at my reflection 
 FEmF
as I follow the chord to your voice
 FG
as it rings on through
 EmFF
 your voice clearly receptive
 G
like the day we met I knew

Chorus:
 CG
   Don't hang up on me, cause
 F
I'm hung up on you
 G
don't tell me how to feel
like you always do
 CG
   I know you're right
 F
I don't want to fight
 G
is this how our story ends
or a new chapter begins?

Verse 2:
 GAm
   As the days roll by
 F
can't help myself
 CG
just sit and wonder why
 Am
was it something I said
 F
something I did my girl?
 GAmF
   Your wilted roses make me cry
 GAm
a sentimental sign of rejection 
 FEmF
as I follow the chord to your voice
 FG
as it rings on through
 EmFF
 your voice clearly receptive
 G
like the day we met I knew

(Repeat Chorus)
(Repeat Intro)
(Rpeat Chorus twice)


Am C Em F G
variations - click chord images
Transpose chords:
Tuning:
Cool service:
View: Size:
A  A  A
Rating:
Layout:
  • Currently 2.4/5 Stars.
  • 1
  • 2
  • 3
  • 4
  • 5
 
Accuracy:
  • Currently 3.6/5 Stars.
  • 1
  • 2
  • 3
  • 4
  • 5
 
click stars to rate
Chordie recommends:
Get acoustic guitar lessons and electric guitar lessons at JamPlay.com
Songbook:
Login to add this song to your songbook
Support the artist
Preview/buy this song
MSN Music
Why this non-profit ad?

 
login to add comments/video/corrections