Chordie logo

Man Who Cant Be Moved  Script

e|-----------------------------------------|


B|-----------------------------------------|


G|-----------------------5--7------5--7----|     


D|---8--8------8--8-----8--8--8---8--8--8--|     


A|--5--5--5---5--5--5--6--6--6---6--6--6---|


E|-6--6--6---5--5--5-----------------------|





C[Bb]os if one day you wake up and find that you're mi[F]ssing me,
And[F] your [Cm] heart starts to wonder where on this e[Eb]arth I can be,
T[Bb]hinking maybe you'll come back here to the p[F]lace that we'd meet,
An[F]d you'd [Cm] see me waiting for you on the c[Eb]orner of the street.
So[Bb] I'm not movin[F]g...
I'm not [F]moving.   [Cm] Eb



On the second F in the chord progression go higher. I play e|-6-|
B|-5-|
G|-6-|
D|-3-|
A|-X-|
E|-X-|

Bridge
|------------------------------------------------------|

|-------3------8---------------------------------------|
|---5-------------8------10---10----------10---10------|
|--5---5--5---8--8--8---10---10---10-----10---10---10--| x2
|------------6--6--6---8----8----8------8----8----8----|
|-3---3--3---------------------------------------------|
|---------------------|
|---------------------|
|---7--7------10--10--|
|--8--8--7---10--10---| x4
|-6--6--6---8---8-----|
|---------------------|
|---------------------|
|---3--3------4--4----|
|--------3---------3--|
|--5--5------5--5-----|
|-3--3--3---3--3--3---|
|---------------------|



Song Order

Main Riff x5
Chorus
Main Riff x3
Chorus
Bridge
Chorus x2
Main Riff

Important: The song above is NOT stored on the Chordie server. The original song is hosted at www.guitaretab.com. Chordie works as a search engine and provides on-the-fly formatting. Chordie does not index songs against artists/composers will. To remove this song please click here.

Bb Cm Eb F
variations - click chord images

Login - add to songbook

Transpose chords

Tuning

Rating click stars to rate

Layout
Accuracy

SHARE PAGE  

You need to log in to post comments