Guitar Tabs, Chords and Lyrics


Iscariot   Showdown



Iscariot by The Showdown
Tabbed By: Daniel Heffner




INTRO
E|--------------------------------------|
B|--------------------------------------|
G|----10p9------------------------------|    x4
D|--------12p10p9--------9h10h12p10p19--|
A|---------------12p10h12-------------12|
D|--------------------------------------|


VERSE
E|---------------------------------------------------|
B|---------------------------------------------------|
G|---------------------------------------------------|      x4
D|----------------------------------------2p0--------|
A|----00h3p0h3p0-00h3p0h3p0-00h3p0h5p0h3p0---3p0-----|
D|----------------------------------------------3h4h5|


CHORUS
E|----------------------------------------|
B|----------------------------------------|
G|----------------------------------------|
D|----3333-/5555---------------2p0--------|
A|----3333-/5555-00h3p0h5p0h3p0---3p0-----|
D|----3333-/5555---------------------3h4h5|



E|--------------|
B|--------------|
G|----3333-/5555|
D|----3333-/5555|
A|----3333-/5555|
D|----3333-/5555|



INTRO x4




SOLO
E|----------------------------------------|
B|----------------------------------------|
G|----10XX10XXXX10XX10-/9XX9XXXXXX--------|
D|----10XX10XXXX10XX10-/7XX7XXXXXX7h10p9p7|
A|----------------------------------------|
D|----------------------------------------|




E|---------------------------------------------|
B|---------------------------------------------|
G|----10XX10XXXX10XX10-/9XX9XX---------9*9*7*7*|
D|----10XX10XXXX10XX10-/7XX7XX-9*9*7*7*--------|
A|---------------------------------------------|
D|---------------------------------------------|



E|----------------------------------------|
B|----------------------------------------|
G|----10XX10XXXX10XX10-/9XX9XXXXXX--------|
D|----10XX10XXXX10XX10-/7XX7XXXXXX7h10p9p7|
A|----------------------------------------|
D|----------------------------------------|



E|------------------------------------------------------------|
B|------------------------------------------------------------|
G|----10XX10XXXX10XX9-----------------------------------------|
D|----10XX10XXXX10XX7-7h10p7h9p7------------------------------|
A|------------------------------10p7h10p7h9p7-7h9h10----------|
D|------------------------------------------------------------|



E|--------------------------------------------------------|
B|--------------------------------------------------------|
G|--------------------------------------------------------|     x2
D|--------------------------------------------------------|
A|----0000-3p0-0-5p0-0-7p0-00-8p0-0000-7p0-00-5p07p03p05p0|
D|--------------------------------------------------------|



INTRO x2

E|-----|
B|-----|
G|--2--|   Let Ring Until End
D|--2--|
A|--0--|
D|-----|


Important: The song above is NOT stored on the Chordie server. The original song is hosted at www.guitaretab.com. Chordie works as a search engine and provides on-the-fly formatting. Chordie does not index songs against artists'/composers' will. To remove this song please click here.

This song is displayed as text-only. Transposing and tuning is only available for chordpro-songs.

Login - add to songbook

Rating click stars to rate

Layout
Accuracy

SHARE PAGE  




You need to log in to post comments