Guitar Tabs, Chords and Lyrics


A Monument Encased In Ash   Showdown



A Monument Encased In Ash
The Showdown
A Chorus of Obliteration

Tabbed by Aaron Bevacqua(swnkylaxplyr@earthlink.net)

p=pull off
h=hammer on
t=tap
~=let note ring
*=harmonic
^=pinch
x=palm mute


At first, its just drums and bass.

Intro: gtr 1
e:-------|
B:-------|
G:-------|
D:-0~----|
A:-0~----|
D:-0~----|

both gtrs
e:---------------------------------------------------------------------------|
B:---------------------------------------------------------------------------|
G:-15p10-xx-14p10-xx-12p10-xxxx-15p10-xx-14p10-12p10-15t10-14t10-17t10-h12---|
D:---------------------------------------------------------------------------|  4 times
A:---------------------------------------------------------------------------|
D:---------------------------------------------------------------------------|

both gtrs
e:----------------------------|
B:----------------------------|
G:----------------------------|
D:----------------------------|
A:-00-00-00--00-00--0-000-000-|
D:-00-00-00--00-00--0-000-000-|
   xx xx xx  xx xx  x xxx xxx
e:----------------------------|
B:----------------------------|
G:----------------------------|
D:----------------------------|
A:-00-00-00--00-00--0-000-5^--|
D:-00-00-00--00-00--0-000-----|
   xx xx xx  xx xx  x xxx
e:----------------------------|
B:----------------------------|
G:----------------------------|
D:----------------------------|
A:-00-00-00--00-00--0-000-000-|
D:-00-00-00--00-00--0-000-000-|
   xx xx xx  xx xx  x xxx xxx
e:----------------------------|
B:----------------------------|
G:----------------------------|
D:----------------------------|
A:-00-00-00--00-00--0-000-000-|
D:-00-00-00--00-00--0-000-000-|
   xx xx xx  xx xx  x xxx xxx


both gtrs
e:---------------------------------------------------------------------------|
B:---------------------------------------------------------------------------|
G:-15p10-xx-14p10-xx-12p10-xxxx-15p10-xx-14p10-12p10-15t10-14t10-17t10-h12---|
D:---------------------------------------------------------------------------|  3 times
A:---------------------------------------------------------------------------|
D:---------------------------------------------------------------------------|


e:----------------------------5*5*5*5*5*---|
B:----------------------------5*5*5*5*5*---|
G:-15p10-xx-14p10-xx-12p10-xx-5*5*5*5*5*---|
D:----------------------------5*5*5*5*5*---|  the harmonics are being affected by a 
bar
A:-----------------------------------------|
D:-----------------------------------------|


both gtrs: this is a harder rhythm to tab, so its definitely not right. You should be 
to figure it out on your own though
e:--------------------------------|
B:--------------------------------|
G:--------------------------------|
D:--------------------------------|
A:-000-000-000--000-0--0000-000---|
D:-000-000-000--000-0--0000-000---|
   xxx xxx xxx  xxx x  xxxx xxx

e:--------------------------------5*5*5*5*---|
B:--------------------------------5*5*5*5*---|
G:--------------------------------5*5*5*5*---|
D:--------------------------------5*5*5*5*---|
A:-000-000-000--000-0--0000-000--------------|
D:-000-000-000--000-0--0000-000--------------|
   xxx xxx xxx  xxx x  xxxx xxx

e:--------------------------------|
B:--------------------------------|
G:--------------------------------|
D:--------------------------------|
A:-000-000-000--000-0--0000-000---|
D:-000-000-000--000-0--0000-000---|
   xxx xxx xxx  xxx x  xxxx xxx

e:--------------------------------5*5*5*5*---|
B:--------------------------------5*5*5*5*---|
G:--------------------------------5*5*5*5*---|
D:--------------------------------5*5*5*5*---|
A:-000-000-000--000-0--0000-000--------------|
D:-000-000-000--000-0--0000-000--------------|
   xxx xxx xxx  xxx x  xxxx xxx


gtr 1
e:------|
B:------|
G:------|
D:-0~~--|  There is some effect going on
A:-0~~--|
D:-0~~--|

gtr 2
e:------------------|
B:------------------|
G:------------------|
D:-0000-7777-8888---| 2 times....Some effect on this (don't confuse this with the next part)
A:-0000-7777-8888---|
D:-0000-7777-8888---|


both gtrs
e:------------------|
B:------------------|
G:------------------|
D:-0000-7777-8888---| 2 times
A:-0000-7777-8888---|
D:-0000-7777-8888---|


gtr 1
e:------------------|
B:------------------|
G:------------------|
D:-0000-7777-8888---| 2 times
A:-0000-7777-8888---|
D:-0000-7777-8888---|

gtr 2: I know I don't have this perfect, but it sounds close enough
e:--------------------------3--------|
B:-6-5-3---3------6-5-3---3---6-5----|
G:-------5---5-3--------5---------5--|
D:-----------------------------------| 3 times
A:-----------------------------------|
D:-----------------------------------|

e:-----------------------------------|
B:-6-5-3---3-------------------------|
G:-------5---5-3-2-3-2-0-2-0---------|
D:---------------------------3-2-0---|
A:-----------------------------------|
D:-----------------------------------|




Important: The song above is NOT stored on the Chordie server. The original song is hosted at www.guitaretab.com. Chordie works as a search engine and provides on-the-fly formatting. Chordie does not index songs against artists/composers will. To remove this song please click here.

This song is displayed as text-only. Transposing and tuning is only available for chordpro-songs.

Login - add to songbook

Rating click stars to rate

Layout
Accuracy

SHARE PAGE  




You need to log in to post comments