Guitar Tabs, Chords and Lyrics


Shades Of Grey   Vasco Era



-------------------------------------------------------------------------------
			 Shades of Grey (Solo) – The Vasco Era
-------------------------------------------------------------------------------
Tabbed by: Tom Trumble
Email: tom@trumble.net.au

Tuning: Standard

| \  slide down
| b  bend
| () ghost note

2:33

e|--------------------------------------------------------------15---12~-----|
B|---------17-----15------------12b---10~----------17-----15-----------------|
G|--------------------14-14--------------------------------------------------|
D|---------------------------------------------------------------------------|
A|---------------------------------------------------------------------------|
E|---------------------------------------------------------------------------|

e|---------------------------------------------------------------------------|
B|---------17-----15------------12b---10~---10~----(10)-18-18---15b\-13~-----|
G|--------------------14-14--------------------------------------------------|
D|---------------------------------------------------------------------------|
A|---------------------------------------------------------------------------|
E|---------------------------------------------------------------------------|

e|---------------------------------------------------------------------------|
B|---13--13--13—13b--13----18-18---15b\-13~---13--13--13--13b--13------------|
G|---------------------------------------------------------------------------|
D|---------------------------------------------------------------------------|
A|---------------------------------------------------------------------------|
E|---------------------------------------------------------------------------|

e|---------------------------------------------------------------------------|
B|---18-18---15b\-13~---13--13--13--13b--13—-10------------------------------|
G|---------------------------------------------------------------------------|
D|---------------------------------------------------------------------------|
A|---------------------------------------------------------------------------|
E|---------------------------------------------------------------------------|

| \  slide down
| b  bend
| () ghost note
===============================================================================



Important: The song above is NOT stored on the Chordie server. The original song is hosted at www.guitaretab.com. Chordie works as a search engine and provides on-the-fly formatting. Chordie does not index songs against artists/composers will. To remove this song please click here.

This song is displayed as text-only. Transposing and tuning is only available for chordpro-songs.

Login - add to songbook

Rating click stars to rate

Layout
Accuracy

SHARE PAGE  




You need to log in to post comments