Wasted Little Djs

View

-------------------------------------------------------------------------------

-------------------------------------------------------------------------------
e|---------------------------------------------------------------------------|
B|12-12-12-10-10-10-9-9-10-9-10-9-10-10-10-----------------------------------|
G|9--9--9--9--9--9--9-9-9--9-9--9-9--9--9------------------------------------|
D|---------------------------------------------------------------------------|
A|---------------------------------------------------------------------------|
E|---------------------------------------------------------------------------|
e|---------------------------------------------------------------------------|
B|12-12-12-10-10-10-9-9-10-9-9-9-10-9-9-9------------------------------------|
G|9--9--9--9--9--9--9-9-9--9-7-9-9--9-7-9------------------------------------|
D|---------------------------------------------------------------------------|
A|---------------------------------------------------------------------------|
E|---------------------------------------------------------------------------|
e|---------------------------------------------------------------------------|
B|-12-12-12-10-10-10-9-9-10-9-10-9-10-9-9-9-10-9-9-9-10-9-9-9-12-12-12-12-12-|
G|-9--9--9--9--9--9--9-9-9--9-9--9-9--9-7-9--9-9-7-9-9--9-7-9-9--9--9--9--9--|
D|---------------------------------------------------------------------------|
A|---------------------------------------------------------------------------|
E|---------------------------------------------------------------------------|

 EAE
 They told me if write this song for them,

 C#m
that they would cut my hair for free,

 ABE
 but that's not me, no liberties. 

 EA
 They're into all the coolest bands

 EC#m
And knowin' that they're comin' to the gigs as fans,

 ABE
 entitles me to some decency.

CHORUS

 EF#mAE
 Astedwae ittlae ejaysdae, they're the cleverest blondes we ken,

 EF#mABE
 Astedwae ittlae ejaysdae, I wish everybody danced liked them.

Pre verse:

e|-----------------------------------------------------------
B|-12-12-12-10-10-10-9-9-10-9-10-9-10-9-10-9-12-12-12-10-9---
G|-9--9--9--9--9--9--9-9-9--9-9--9-9--9-9--9-9--9--9--9--9-9  hold this last note.


VERSE TWO

 EAE
 Split visions of a talkative therapy,

 C#mA
It makes me bend away it gives me 'E',

 BE
Seems hard to say it's insanity.

 EA
 Same record for the 16th time,

 EC#m
 Exact same set you did the last time round,

 ABE
 Doesn't bother me we're in harmony.

CHORUS

 EF#mAE
 Astedwae ittlae ejaysdae, they're the cleverest blondes we ken,

 EF#mABC#m
 Astedwae ittlae ejaysdae, I wish everybody danced liked them.

 ABE
 Everybody danced liked them.

BRIDGE (listen to the song for exact rhythms)

 CG
 No low emotions rolling tonight,

 DA
 Young heavy hopefuls staying the night,

 CGABbB
 So stick around and wait for the day, ay, ay..

 ABbBBbABbB
 Craziness kills laziness and happiness takes bad bets,

 ABbBBbA
 Noone gives a fuck you see we're all out our little heads,

 ABbBBbABbB
 Craziness kills laziness and happiness takes bad bets,

 ABbBBb
 Noone gives a fuck you see,

 BBbB
 we're all out of our,

 BA
 All out of our,

 BBbAAE
 All out of our little fucking heads.

 EAE
 Doo doo doo doo doo doo doo doo do doo,

 C#m
Doo doo doo doo doo doo doo doo,

 A
 Doo doo doo,

 BE
Doo doo doo dooo..

SOLO (i will tab lead later)

E A E C#m A B E (x2)

CHORUS

 EF#mAE
 Astedwae ittlae ejaysdae, they're the cleverest blondes we ken,

 EF#mABE
 Astedwae ittlae ejaysdae, I wish everybody danced like them,

 EF#mAE
 Astedwae ittlae ejaysdae, they're the cleverest blondes we ken,

 EF#mABEC#m
 Astedwae ittlae ejaysdae, I wish everybody danced like them,

OUTRO (The 'E' chord is played in this section as power chord in the 7th position)

 ABEC#m
 Can anybody dance like them, please tell me,

 ABEC#m
 Can anybody dance like them, please tell me,

 ABEC#m
 Can anybody dance like them, please tell me,

 ABEC#m
 Can anybody dance like them,         

 ABEC#m
 Astedwae ittlae ejaysdae,            

 ABEC#m
 Astedwae ittlae ejaysdae,            

 ABEC#m

End On

           e|--------

A B B|-9-10-9
G|-9-9--9

A B Bb C C#m D E F#m G
variations - click chord images
Transpose chords:
Tuning:
Cool service:
View: Size:
A  A  A
Rating:
Layout:
  • Currently 3.5/5 Stars.
  • 1
  • 2
  • 3
  • 4
  • 5
 
Accuracy:
  • Currently 2.8/5 Stars.
  • 1
  • 2
  • 3
  • 4
  • 5
 
click stars to rate
Chordie recommends:
Get acoustic guitar lessons and electric guitar lessons at JamPlay.com
Songbook:
Login to add this song to your songbook
Support the artist
Preview/buy this song
MSN Music
Why this non-profit ad?

 
login to add comments/video/corrections