Chordie logo


Staring At The Light   Wedding



Song: Staring at the Light
Band: The Wedding
Album: Polarity
Tuning: Drop D Flat

Guitar 1
eb|---------------------------|
bb|-1313-1313-13-1313-1313-13-|
Gb|-1212-1212-12-1212-1212-12-|
Db|-1010-1010-10-1010-1010-10-|
Ab|---------------------------|
Db|---------------------------|

Guitar 2
eb|-------------------------|
bb|-------------------------|
Gb|-------------------------|
Db|-------------------------|
Ab|-2-----5-4-0-2-----5-4-0-|
Db|---2-4---------2-4-------| x2

Both Guitars
eb|-------|
bb|-------|
Gb|-------|
Db|-44-5~-|
Ab|-44-5~-|
Db|-44-5~-|

Guitar 1
eb|-----------------|
bb|-----------------|
Gb|-777-777-666-666-|
Db|-xxx-xxx-xxx-xxx-|
Ab|-555-555-444-444-|
Db|-----------------|

Verse (Both Guitars)
eb|-----------------------------------------------------|
bb|-----------------------------------------------------|
Gb|-------------------777-777-666-666-------------------|
Db|-------------------xxx-xxx-xxx-xxx-------------------|
Ab|-------------------555-555-444-444-------------------|
Db|-3-0-2020-3-0-2020-----------------3-0-2020-3-0-2020-|

Pre-Chorus (Guitar 2)
eb|---------------------------------------------------------|
bb|---------------------------------------------------------|
Gb|1212-1010-99-1010-99----------1212-1010-99-1010-99-10/12-|
Db|---------------------10/12-10----------------------------|
Ab|---------------------------------------------------------|
Db|---------------------------------------------------------|

eb|-------------------------------------------------|
bb|-------------------------------------------------|
Gb|1212-1010-99-1010-99-----------------------------|
Db|---------------------10/12-10-10101010-9999-7777-|
Ab|-------------------------------------------------|
Db|-------------------------------------------------|

eb|---------------------|
bb|---------------------|
Gb|1212-111211-14111211-|
Db|1212-121212-12121212-|
Ab|---------------------|
Db|---------------------| x4 Hopefully that's not too hard to read.

Chorus
eb|--------------------------------------------|
bb|--------------------------------------------|
Gb|--------------------------------------------|
Db|00000000-55555555-99999999-1010101010101010-|
Ab|00000000-55555555-99999999-1010101010101010-|
Db|00000000-55555555-99999999-1010101010101010-|

eb|---------------------------------------|
bb|---------------------------------------|
Gb|---------------------------------------|
Db|55555555-00000000-99999999-55555555-0~-|
Ab|55555555-00000000-99999999-55555555-0~-|
Db|55555555-00000000-99999999-55555555-0~-|

then go through the intro, verse, prechorus, and chorus again.

Bridge Guitar 1
eb|-----------------------|
bb|-----------------------|
Gb|-----------------------|
Db|0-0-0-0-0-0-0-0-0-0000-|
Ab|0-0-0-0-0-0-0-0-0-0000-|
Db|0-0-0-0-0-0-0-0-0-0000-| x6

eb|-----------------------|
bb|-----------------------|
Gb|-----------------------|
Db|2-2-2-2-2-2-2-2-2-2222-|
Ab|2-2-2-2-2-2-2-2-2-2222-|
Db|2-2-2-2-2-2-2-2-2-2222-| x2

eb|-----------------------|
bb|-----------------------|
Gb|-----------------------|
Db|0-0-0-0-0-0-0-0-0-0000-|
Ab|0-0-0-0-0-0-0-0-0-0000-|
Db|0-0-0-0-0-0-0-0-0-0000-|

Bridge Guitar 2  s=11
eb|--------------------------------------------------------------|
bb|--------------------------------------------------------------|
Gb|ssssssssssssssssssssssss-s9s9-ssssssssssssssssssssssssss-s9s9-|
Db|xxxxxxxxxxxxxxxxxxxxxxxx-xxxx-xxxxxxxxxxxxxxxxxxxxxxxxxx-xxxx-|
Ab|999999999999999999999999-9797-99999999999999999999999999-9797-|
Db|--------------------------------------------------------------|

eb|----------------------------------------------------------------------|
bb|----------------------------------------------------------------------|
Gb|1414141414141414141414141414141414141414-s-9-sssssssssssssssssssssssss|
Db|xxxxxxxxxxxxxxxxxxxxxxxxxxxxxxxxxxxxxxxx-x-x-xxxxxxxxxxxxxxxxxxxxxxxxx|
Ab|1212121212121212121212121212121212121212-9-7-9999999999999999999999999|
Db|----------------------------------------------------------------------|

Interlude
eb|----------------------------------------------------|
bb|----------------------------------------------------|
Gb|9999999999999999-1414141414141414141414141414141414-|
Db|xxxxxxxxxxxxxxxx-xxxxxxxxxxxxxxxxxxxxxxxxxxxxxxxxxx-|
Ab|7777777777777777-1212121212121121212121212121211212-|
Db|----------------------------------------------------|

Chorus until it fades out. I took this from watching them play live and from tabbing 
out on my own so most of it should be right. There's a couple parts missing that I couldn't 


Important: The song above is NOT stored on the Chordie server. The original song is hosted at www.guitaretab.com. Chordie works as a search engine and provides on-the-fly formatting. Chordie does not index songs against artists/composers will. To remove this song please click here.

This song is displayed as text-only. Transposing and tuning is only available for chordpro-songs.

Login - add to songbook

Rating click stars to rate

Layout
Accuracy

SHARE PAGE  




You need to log in to post comments