Chordie logo


Seven Nation Army   White Stripes



This is take from their new album called 'Elephant'. 

Standard tuning: E A D G B E

MAIN RIFF ( this is played throughout the verses )
*********************************************************************

E|--------------------------
B|--------------------------
G|--------------------------
D|--------------------------
A|-7--7--10--7--5--3--2----
E|--------------------------


Pre-Chorus
**************************

E|-------------------------------------------
B|------------------------0-0-0-0--0-0-0-0---
G|------------------------0-0-0-0--0-0-0-0---
D|-0-0--------------------0-0-0-0--0-0-0-0---
A|-0-0--5-5-5-5--5-5-5-5--0-0-0-0--0-0-0-0-
E|-0-0--3-3-3-3--3-3-3-3--0-0-0-0--0-0-0-0--

Chorus
**********************

E|--------------------------
B|--------------------------
G|-9--9--/12--9--7--5--4----
D|-9--9--/12--9--7--5--4----
A|-7--7--/10--7--5--3--2----
E|--------------------------

E|-----------------------------
B|-----------------------------
G|-9--9--/12--9--7--5-7-5-4----
D|-9--9--/12--9--7--5-7-5-4----
A|-7--7--/10--7--5--3-5-3-2----
E|-----------------------------

and the end chord is simply this
******************************************

E|------
B|------
G|-9----
D|-9----
A|-7----


Important: The song above is NOT stored on the Chordie server. The original song is hosted at www.guitaretab.com. Chordie works as a search engine and provides on-the-fly formatting. Chordie does not index songs against artists/composers will. To remove this song please click here.

This song is displayed as text-only. Transposing and tuning is only available for chordpro-songs.

Login - add to songbook

Rating click stars to rate

Layout
Accuracy

SHARE PAGE  




You need to log in to post comments