Guitar Tabs, Chords and Lyrics


Circle Square Acoustic  Wonder Stuff

[Em]      [Dm11]        [C]                                                                 
 -0-   -0-    -0-    E|-3-0-------------|
 -0-   -3-    -1-    B|-----3-0---------|
 -0-   -0-    -0-    G|---------3-0-2-0-|
 -2-   -4-    -2-    D|-----------------|
 -2-   -5-    -3-    A|-----------------|
 -0-   -x-    -x-    E|-----------------|


(Verse 1)
[Em]Is that a smile that [Dm11]hangs beneath your [C]nose    [C]
[Em]Or are your lips just stuck [Dm11]to your teeth [C]and they're too [C]fixed to close
You don't [Em]have to ham it [Dm11]up for me or [C]tell me how long [C]you've
[Em]Waited just to [Dm11]be with me[C]

(Chorus)
|-0---2---2---0-0-|---2-2---2---0-0-|-0---2---2---0-0-|-2---2---2---0-0-|
|-3---3---3---3-3-|---3-3---3---3-3-|-3---3---3---3-3-|-3---3---3---3-3-|
|-2---2---2---2-2-|---2-2---2---2-2-|-0---0---0---0-0-|-0---0---0---2-2-|
|-0---0---0---0-0-|---0-0---0---0-0-|-2---2---2---2-2-|-2---2---2---0-0-|
|-----------------|-----------------|-----------------|-----------------|
|-----------------|-----------------|-----------------|-----------------|


I've been a [D]long term disappointment to myself
But it [Em]hits like a hammer when I'm [Dm11]that to someone else
And now the [D]circle doesn't fit it's little square
[Em]It bulges with opportunity ... [Dm11]bulges

(Verse 2)
[Em]Is that a smile that [Dm11]hangs beneath your [C]nose  [C]
Or are your [Em]eyes so wide they've[Dm11] pulled your mouth [C]into a stupid [C]pose
You don't [Em]have to ham it [Dm11]up for me or [C]tell me how long [C]you've
[Em]Waited just to [Dm11]be with me[C]

(Chorus)
I've been [D]a long term disappointment to myself
But it [Em]hits like a hammer when I'm [Dm11]that to someone else
And now the [D]circle doesn't fit it's little square
[Em]It bulges with opportunity ... [Dm11]bulges

(Bridge)
I don't know what these chords are called so bear with me.

F?? C?? Bb??
-0-    -0-    -0-
-10-   -10-   -8-
-0-    -0-    -0-
-9-    -0-    -0-
-10-   -9-    -7-
-x-    -10-   -8-


(Chorus)
I've been a [D]long term disappointment to myself
But it [Em]hits like a hammer when I'm [Dm11]that to someone else
And now the [D]circle doesn't fit it's little square
[Em]It bulges with opportunity ... [Dm11]bulges

(Chorus)
I've been a [D]long term disappointment to myself
But it [Em]hits like a hammer when I'm [Dm11]that to someone else
And now the [D]circle doesn't fit it's little square
[Em]It bulges with opportunity ... [Dm11]bulges

(Outro)

|-0---2---2---0-0-|---2-2---2---0-0-|-0---2---2---0-0-|-2---2---2---0-0-|
|-3---3---3---3-3-|---3-3---3---3-3-|-3---3---3---3-3-|-3---3---3---3-3-|
|-2---2---2---2-2-|---2-2---2---2-2-|-0---0---0---0-0-|-0---0---0---2-2-|
|-0---0---0---0-0-|---0-0---0---0-0-|-2---2---2---2-2-|-2---2---2---0-0-|
|-----------------|-----------------|-----------------|-----------------|
|-----------------|-----------------|-----------------|-----------------|



(Lead Guitar)
E|-3----------2-------------|
B|-3----------3----------3--|
G|-0----------0----------0--|
D|-2----------2----------2--|
A|--------------------------|
E|--------------------------|


While the rhythm guitar plays the chords the lead guitar does little riffs.


|-3-0-------------|----0----2-0-----|------0----------|-3-0-------------|
|-----3-0---------|-----------------|-----------------|-----3-0---------|
|---------3-0-2-0-|-----------------|-----------------|---------3-0-2-0-|
|-----------------|-----------------|-----------------|-----------------|
|-----------------|-----------------|-----------------|-----------------|
|-----------------|-----------------|-----------------|-----------------|


That is played in the verse when there is no singing.

When there is singing the lead guitar strums an Em with an up-stroke everytime the
rhythm guitar comes round to an Em.

[Em]                                                                              
|-0-----------|
|--0----------|
|---0---------|
|----2--------|
|-----2-------|
|------0------|


(Lead guitar in the chorus while rhythm guitar is playing the D)
|----0-2-2-0-0----|----0-2-2-2-0----|----0-2-2-0-0----|----0-2-2-2-0----|
|-----------------|-----------------|-----------------|-----------------|
|-----------------|-----------------|-----------------|-----------------|
|-----------------|-----------------|-----------------|-----------------|
|-----------------|-----------------|-----------------|-----------------|
|-----------------|-----------------|-----------------|-----------------|


(Lead guitar in the chorus while rhythm guitar is playing the Em and Dm11)
|----3-5-5-3-3----|----3-5-5-5-3----|----3-5-5-3-3----|----3-5-5-5-3----|
|-----------------|-----------------|-----------------|-----------------|
|-----------------|-----------------|-----------------|-----------------|
|-----------------|-----------------|-----------------|-----------------|
|-----------------|-----------------|-----------------|-----------------|
|-----------------|-----------------|-----------------|-----------------|


This is how I think it goes anyway...

This is the acoustic version of the song NOT the studio version. So please don't
leave me loads of comments saying I'm wrong!!!

http://www.thewonderstuff.co.uk/

Sean Hales

Important: The song above is NOT stored on the Chordie server. The original song is hosted at www.guitaretab.com. Chordie works as a search engine and provides on-the-fly formatting. Chordie does not index songs against artists'/composers' will. To remove this song please click here.

Text color:
Chord color:
Chord grids: 
Font size:    
Page size: 

C D Dm11 Em
variations - click chord images

Login - add to songbook

Transpose chords

Tuning

Rating click stars to rate

Layout
Accuracy

SHARE PAGE  




You need to log in to post comments