Guitar Tabs, Chords and Lyrics


Jam Jar Jail   Therapy



----------------------------------------------------------------------------
			     Jam Jar Jail - Therapy?
----------------------------------------------------------------------------

Tabbed by: LittleKnowItAll
Email: LittleKnowItAll@hotmai.co.uk

Tuning:E,a,d,g

 Come in at end of bass line     Intro
e|------------------------------|-------------------------------------------|
B|------------------------------|-------------------------------------------|
G|------------------------------|-------------------------------------------|
D|--5---------------------------|-------------------------------------------|
A|--3---7--7--7--7--7--7--7--7--|--7--7--7--5--10--10--10--10--10--10--3--3-|
E|------5--5--5--5--5--5--5--5--|--5--5--5--3--8--8--8--8--8--8--8--8--1--1-|

e|-----------------------------------|
B|-----------------------------------|
G|-----------------------------------|
D|-------5---------------------------|x 2
A|-3--3--3---7--7--7--7--7--7--7--7--|
E|-1--1------5--5--5--5--5--5--5--5--|


Verse.

Well you walk just like a tourist...

e|--------------------------------------------------------------------------|
B|--------------------------------------------------------------------------|
G|--------------------------------------------------------------------------|
D|--------------------------------------------------5-----------------------|
A|--7--7--7--5--10--10--10--10--10--10--3--3--3--3--3---7--7--7--7--7--7--7-|
E|--5--5--5--3--8--8--8--8--8--8--8--8--1--1--1--1------5--5--5--5--5--5--5-|


e|----|
B|----|
G|----|
D|----|x4
A|-7--|
E|-5--|

Bridge.

Hang on....


e|----------------------------------------|
B|----------------------------------------|
G|----------------------------------------|
D|----7--5--------------5--7--------------|x4
A|----5--3--7--7--7--7--3--5--7--7--7--7--|
E|----------5--5--5--5--------5--5--5--5--|

Chorus.

Answer me now when all....                                              x4
e|-------------------------------------------------------------------------|
B|-------------------------------------------------------------------------|
G|-------------------------------------------------------------------------|
D|--9--9--9--8--7--5--5--5--5--5--5--5--5-----------5------------------7---|
A|--7--7--7--6--5--3--3--3--3--3--3--3--3--5--5--5--3--5--5-/-7--7--7--5--7|
E|-----------------------------------------3--3--3-----3--3-/-5--5--5-----5|


Chrous part 2.

Jail.....                            Stuck in your jam jar jail....
e|--------------------------------------------------------------------------|
B|--------------------------------------------------------------------------|
G|--------------------------------------------------------------------------|
D|--------------------------------------------------5-----------------------|
A|--7--7--7--5--10--10--10--10--10--10--3--3--3--3--3---7--7--7--7--7--7--7-|
E|--5--5--5--3--8--8--8--8--8--8--8--8--1--1--1--1------5--5--5--5--5--5--5-|


e|----|
B|----|
G|----|
D|----|x4
A|-7--|
E|-5--|


Structure

Bass intro
Intro
Verse
Bridge
Chrous
Verse
Bridge
Chrous
Bass riff
Chorus (part 2 only)
Outro (part 2 chorus continued)

| /  slide up
| \  slide down
| h  hammer-on
| p  pull-off
| ~  vibrato
| +  harmonic
| x  Mute note


Important: The song above is NOT stored on the Chordie server. The original song is hosted at www.guitaretab.com. Chordie works as a search engine and provides on-the-fly formatting. Chordie does not index songs against artists/composers will. To remove this song please click here.

This song is displayed as text-only. Transposing and tuning is only available for chordpro-songs.

Login - add to songbook

Rating click stars to rate

Layout
Accuracy

SHARE PAGE  




You need to log in to post comments