Chordie logo

Sin Ti     Thermo



                   Thermo - Sin Ti

Tuning: Standard (EADGBe)

00:00 Aun No Puedo Comprender.....PM........ (Guitarra)
e|-----------------|----------------|
B|-----------------|----------------|
G|-----------------|----~-----------|
D|-----------------|----------------|
A|-3333333333333333|5555555555555555|
E|-5555555555555555|7777777777777777|
Muchas Veces

00:09 Piano
e|------|------|------|------|------|------|
B|-2-3-5|-2-3-5|-2-3-5|-2-3-5|-5-3-2|-5-3-2|
G|------|------|------|-----~|------|------|
D|------|------|------|------|------|------| (x2)
A|------|------|------|------|------|------|
E|--~---|------|------|------|------|------|

e|------|------|-------|-----|
B|-2-3-5|-2-3-5|-5-3-2-|5-3-2|
G|------|------|-------|-----|
D|------|------|-------|-----|
A|------|------|-------|-----|
E|--~---|------|-------|-----|

00:27 Piano
e|-2-3-5-|-2-3-5-|-5-3-2-|-5-3-2|
B|-------|-------|-------|------|
G|-------|-------|-------|------|
D|-------|-------|-------|------| (x4)
A|-------|-------|-------|------|
E|-------|-------|-------|------|

00:46 Aun No Puedo Comprender..... (Guitarra)
e|--------|--------|--------|-------|---------|
B|--------|--------|--------|-------|---------|
G|--------|--------|--------|-------|---------|
D|-5------|-3------|-5------|-3-----|---------|
A|-5------|-3------|-5------|-3-----|---------|
E|-3------|-1------|-3------|-1-----|-Slide>>>|

00:55 Es Que Siempre Ignore ..... (Guitarra)

e|--------|--------|--------|-------|-------|-------|-------|
B|--------|--------|--------|-------|-------|-------|-------|
G|--------|--------|--------|-------|-------|-------|-------|
D|-5------|-3------|-5------|-------|-------|-------|-------|
A|-5------|-3------|-5------|-5-5-5-|-7-7-7-|-5-5-5-|-3-3-3-|
E|-3------|-1------|-3------|-3-3-3-|-5-5-5-|-3-3-3-|-1-1-1-|
                             PM..... ..... ..... ..... .....

e|--------|--------|--------|-------------|
B|--------|--------|--------|-------------|
G|--------|--------|--------|-44-4-44-4-4-|
D|-5------|-3------|-5------|-44-4-44-4-4-| (x2)
A|-5------|-3------|-5------|-22-2-22-2-2-|
E|-3------|-1------|-3------|-------------|

01:20 Piano

e|-2-3-5-|-2-3-5-|-5-3-2-|-5-3-2|
B|-------|-------|-------|------|
G|-------|-------|-------|------|
D|-------|-------|-------|------| (x4)
A|-------|-------|-------|------|
E|-------|-------|-------|------|

01:38 Se Que Te Preguntaras..... (Guitarra)

e|--------|--------|--------|---------|---------|----------|----------|----------|-------|-------|
B|--------|--------|--------|---------|---------|----------|----------|----------|-------|-------|
G|--------|--------|--------|---------|---------|----------|----------|----------|-------|-------|
D|-5------|-3------|-5------|-3-------|---------|-5--------|-3--------|-5--------|-------|-------|
A|-5------|-3------|-5------|-3-------|---------|-5--------|-3--------|-5--------|-5-5-5-|-7-7-7-|
E|-3------|-1------|-3------|-1-------|-Slide>>>|-3--------|-1--------|-3--------|-3-3-3-|-5-5-5-|
                                                                                  
.....
e|----------|----------|    e---------|---------|---------|-------------|
B|----------|----------|    B---------|---------|---------|-------------|
G|----------|----------|    G---------|---------|---------|-44-4-44-4-4-|
D|----------|----------|    D-5-------|-3-------|-5-------|-44-4-44-4-4-| (x2)
A|-5-5-5----|-3-3-3----|    A-5-------|-3-------|-5-------|-22-2-22-2-2-|
E|-3-3-3----|-1-1-1----|    E-3-------|-1-------|-3-------|-------------|

  PM..... ..... .....


02:16 Solo (Guitarra)

e|----------|
B|-6*-9*-7*-|
G|----------|
D|----------| (x9)
A|----------|
E|----------|

02:51 Por Ti... Piano

e|-2-3-5-|-2-3-5-|-5-3-2-|-5-3-2|
B|-------|-------|-------|------|
G|-------|-------|-------|------|
D|-------|-------|-------|------| (x8)
A|-------|-------|-------|------|


Important: The song above is NOT stored on the Chordie server. The original song is hosted at www.guitaretab.com. Chordie works as a search engine and provides on-the-fly formatting. Chordie does not index songs against artists/composers will. To remove this song please click here.

This song is displayed as text-only. Transposing and tuning is only available for chordpro-songs.

Rating click stars to rate

Layout
Accuracy

SHARE PAGE  

You need to log in to post comments