Chordie logo

Gorgeous   Thestart



tabs by beli8 (anabella_8@hotmail.com)


Most of the song is played with distortion (except on the second verse; you
can hear separate clean notes from each chord).

Drop D Tuning (E B G D A D)
*    = Repeat [as needed]
P.M. = Palm mute
()   = Ghost note
A.H  = Artificial harmonic



INTRO (also used in 2nd verse)
E|-10---10-----10---10-------------------------------|
B|--8----8------8----8-------------------------------|
G|-(7)--(7)----(7)--(7)------------------------------|
D|---------------------------------------------------|
A|---------------------------------------------------|
D|---------------------------------------------------|
                     ^ring out

VERSE
E|-----------------------------------------------
B|-----------------------------------------------
G|*----------------------------------------------
D|*-7-7-7-7-7-7-7-7------------------------------
A|--5-5-5-5-5-5-5-5--5-5-5-5-5-5-5-5-------------
D|-------------------5-5-5-5-5-5-5-5-------------
    P.M.____________________________


E|-----------------------------------------------|
B|-----------------------------------------------|
G|----------------------------------------------*|
D|----------------------------------------------*|
A|-3-3-3-3-3-3-3-3-3-3-3-3-3-3-3-3---------------|
D|-3-3-3-3-3-3-3-3-3-3-3-3-3-3-3-3---------------|
   _______________________________


CHORUS
E|-----------------------------------------------------------------------|
B|-----------------------------------------------------------------------|
G|*---------------------------------------------------------------------*|
D|*-------------------------------------------------------------7-7-7-7-*|
A|------5---5-6-5-5------5---5-6-5-5------5---5-6-5-5------5-------------|
D|--0-0---0----------5-5---5----------3-3---3----------3-3---3-----------|



 "My eyes were spinning..."
E|--0--------------------------------------------|
B|-----------------------------------------------|
G|-----------------------------------------------|
D|-------------9---------15----------------------|
A|-----------------------------------------------|
D|-----------------------------------------------|
               ^A.H      ^A.H


 2ND CHORUS variation at 1:50
E|-----------------------------------------------
B|-----------------------------------------------
G|---------------------------------5-5-5---------
D|-------------------5-5--7-7--9-9---------------
A|--5-5-5--7-7--9-9------------------------------
D|-----------------------------------------------

E|-----------------------------------------------|
B|-------------------------------------5---------|
G|-9-9-9-5-5-5-5-5---9-9-9-5-5-5-5-5---5---------|
D|------------------------------------(5)--------|
A|-----------------------------------------------|
D|-----------------------------------------------|



 Variation in 3rd VERSE (only on 1st and 3rd repetition):

E|-----------------------------------------------
B|-----------------------------------------------
G|-----------------------------------------------
D|--7-7-7-7-7-7-7-7------------------------------
A|--5-5-5-5-5-5-5-5--5-5-5-5-5-5-5-5-------------
D|-------------------5-5-5-5-5-5-5-5-------------
    P.M_____________________________

E|-----------------------------------------------|
B|-----------------------------------------------|
G|-----------------------------------------------|
D|--------5-5-5-5-5-------5-5-5-5-5--------------|
A|--3-3-3-3-3-3-3-3-3-3-3-3-3-3-3-3--------------|
D|--3-3-3-3-3-3-3-3-3-3-3-3-3-3-3-3--------------|


Important: The song above is NOT stored on the Chordie server. The original song is hosted at www.guitaretab.com. Chordie works as a search engine and provides on-the-fly formatting. Chordie does not index songs against artists/composers will. To remove this song please click here.

This song is displayed as text-only. Transposing and tuning is only available for chordpro-songs.

Login - add to songbook

Rating click stars to rate

Layout
Accuracy

SHARE PAGE  

You need to log in to post comments