Chordie logo


Dont Lets Start   They Might Be Giants



Don't Let's Start by They Might Be Giants
Tabbed by Pat Murphy (cashoo34@yahoo.com)

e-------------------------------------------------------------------|
B-------------------------------------------------------------------|
G-----------5-5----9---9--9-----------------5--5--5-------------7-7-|
D--5---5--5-5-5----9---9--9-7-7----5---5--5-5--5--5--7---7--7-7-7-7-|
A--5---5--5-3-3----7---7--7-7-7----5---5--5-3--3--3--7---7--7-7-5-5-|
E--3---3--3-----------------5-5----3---3--3----------5---5--5-5-----|
           
e-------------------------------------------------------------------|
B-------------------------------------------------------------------|
G-----------5-5----9---9--9--------9---9-9----------------------7-7-|
D--5---5--5-5-5----9---9--9-7-7----9---9-9--5---5-5--7---7--7-7-7-7-|
A--5---5--5-3-3----7---7--7-7-7----7---7-7--5---5-5--7---7--7-7-5-5-|
E--3---3--3-----------------5-5-------------3---3-3--5---5--5-5-----|

e-------------------------------------------------------------------|
B-------------------------------------------------------------------|
G-----------5-5----9---9--9-----------------5--5--5-------------7-7-|
D--5---5--5-5-5----9---9--9-7-7----5---5--5-5--5--5--7---7--7-7-7-7-|
A--5---5--5-3-3----7---7--7-7-7----5---5--5-3--3--3--7---7--7-7-5-5-|
E--3---3--3-----------------5-5----3---3--3----------5---5--5-5-----|

Verse (play 3)
e---------------------------------------------------------------------------
B-15-15-15-15--13-13-13-13---------------15-15-15-15--13-13-13-13-----------
G-14-14-14-14--12-12-12-12---------------14-14-14-14--12-12-12-12-----------
D--------------------------------------------------------------------------0
A----------------------------------0----------------------------------------
E---------------------------0-1--3----3-----------------------------0-1--3--

"Wake up and smell the catfood..." (twice)
e--------------------------------------|
B--------------------------------------|
G--x--x--7-----------x--x--5-----------|
D--x--x--7--x--x--7--x--x--5--x--x--5--|
A--x--x--5--x--x--7--x--x--3--x--x--5--|
E-----------x--x--5-----------x--x--3--|

Pre-Chorus
e--------------------------------------------|
B-55555555-66666666-88888888-----------------|
G-44444444-55555555-77777777-----5------5--5-|
D--------------------------------5------5--5-|
A-----------------------------3--3---3--3--3-|
E--------------------------------------------|

Chorus
e-------------------------------------------------------------------|
B-------------------------------------------------------------------|
G-----------5-5----9---9--9--------9---9-9----------------------7-7-|
D--5---5--5-5-5----9---9--9-7-7----9---9-9--5---5-5--7---7--7-7-7-7-|
A--5---5--5-3-3----7---7--7-7-7----7---7-7--5---5-5--7---7--7-7-5-5-|
E--3---3--3-----------------5-5-------------3---3-3--5---5--5-5-----|

e-------------------------------------------------------------------|
B-------------------------------------------------------------------|
G-----------5-5----9---9--9-----------------5--5--5-------------7-7-|
D--5---5--5-5-5----9---9--9-7-7----5---5--5-5--5--5--7---7--7-7-7-7-|
A--5---5--5-3-3----7---7--7-7-7----5---5--5-3--3--3--7---7--7-7-5-5-|
E--3---3--3-----------------5-5----3---3--3----------5---5--5-5-----|
           
Verse Riff x 3

"They want what they want..."
e--------------------------------------|
B--------------------------------------|
G--x--x--7-----------x--x--5-----------|
D--x--x--7--x--x--7--x--x--5--x--x--5--|
A--x--x--5--x--x--7--x--x--3--x--x--5--|
E-----------x--x--5-----------x--x--3--|

Pre-Chorus Riff x 1

Chorus x 1

Bridge (I dont want to live in this world...)
e--10----10----10----10--|
B--13b---13b---13b---13b-|
G------------------------|
D------------------------|x2
A------------------------|
E------------------------|

Chorus x 1

Outro
e---------------------------------------------------------------------|
B-17-17-17-17-16-16-16-16-15-15-15-14--13-13-13-12-12-12--------------|
G-16-16-16-16-15-15-15-15-14-14-14-13--12-12-12-11-11-11--------------|
D-----------------------------------------------------------5--5--5-5-|
A-----------------------------------------------------------5--5--5-5-|
E-----------------------------------------------------------3--3--3-3-|



Important: The song above is NOT stored on the Chordie server. The original song is hosted at www.guitaretab.com. Chordie works as a search engine and provides on-the-fly formatting. Chordie does not index songs against artists/composers will. To remove this song please click here.

This song is displayed as text-only. Transposing and tuning is only available for chordpro-songs.

Login - add to songbook

Rating click stars to rate

Layout
Accuracy

SHARE PAGE  




You need to log in to post comments