Guitar Tabs, Chords and Lyrics


Daily Show Theme   They Might Be Giants



Artist: They Might Be Giants
Song: Daily Show Theme

Chords:    A  G  F
       E|-----------|
       B|-----------|
       G|-----------|
       D|--7--5--3--|
       A|--7--5--3--|
       E|--5--3--1--|
Riff 1:
E |---------------------------------------------------|
B |---------------------------------------------------|
G |---------------------------------------------------|
D |3---5---5---5----3--3--3--3--5----5--5--5--3--3--3-|
A |3---5---5---5----3--3--3--3--5----5--5--5--3--3--3-|
E |1---3---3---3----1--1--1--1--3----3--3--3--1--1--1-|

Main Riff:
E |---------------------------------------------|
B |---------------------------------------------|
G |---------------------------------------------|
D |-----2-------0---2---0-----------7----5---3--|
A |--3-----3---------------3---0----7----5---3--|


Important: The song above is NOT stored on the Chordie server. The original song is hosted at www.guitaretab.com. Chordie works as a search engine and provides on-the-fly formatting. Chordie does not index songs against artists/composers will. To remove this song please click here.

This song is displayed as text-only. Transposing and tuning is only available for chordpro-songs.

Login - add to songbook

Rating click stars to rate

Layout
Accuracy

SHARE PAGE  




You need to log in to post comments