Guitar Tabs, Chords and Lyrics


Dammit  Thin Dark Line

    [CM7] ^   v release ^   v releas[G]e                      fast
e|-------------------------------------------------------------------------------------------|
B|-------5-------------5-----5p3---------3------------5p4p3----------------------------------|
G|-------4-------------4------------4------4------4---------4~-------------------------------|
D|-------5-------------5----------5----------5---5-------------------------------------------|
A|---3-------------3-------------------------------------------------------------------------|
E|-------------------------------------------------------------------------------------------|


     [A]^   v release ^   v relea[F]se                       fast
e|-------------------------------------------------------------------------------------------|
B|-------5-------------5-----3p1---------1------------3p2p1----------------------------------|
G|-------6-------------6------------2------2------2---------2~-------------------------------|
D|-------7-------------7----------3----------3---3-------------------------------------------|
A|-------------------------------------------------------------------------------------------|
E|---5-------------5-------------------------------------------------------------------------|


Verse:

    [CM7] ^   v release         [G]^   v ^ v ^ v ^
e|-----------------------------3-----------------------------|
B|-------5---------------------3-----------------------------|
G|-------4---------------------4-----------------------------|
D|-------5---------------------5-----------------------------|
A|---3-------------------------5-----------------------------|
E|-------------------------3---------------------------------|


It's alright to tell me

     [A]^   v release         [F]        fast
e|------------------------------------------------------------|
B|-------5-------------------------3p2p1----------------------|
G|-------6---------------------2-----------2~-----------------|
D|-------7-------------------3--------------------------------|
A|-------------------------3----------------------------------|
E|---5--------------------------------------------------------|


what you think about me

verse (4x)
intro (1x)
verse (4x)


chorus:

          And i[C]t's happened once again, I[G]'ll turn to a friend  [A]
          Someone who unders[F]tands, sees through the master plan
          But everyb[C]ody's gone, and I've[G] been there for too lon[A]g
          To face this on my o[F]wn, well I guess this is growing up

intro (1x)
verse (4x)
chorus(1x)

outro: (3:15)

basic riff:

      [C]                      [G]                                                                       
e|----------------------------------------------------------|
B|----5----------5----------3----------5--------------------|
G|----------5---------5---------5---5------5---5------------|
D|--------5---5-----5---5---------5----------5--------------|
A|----3-----------------------------------------------------|
E|--------------------------5-------------------------------|


Well I guess this is growing up (it happens once again...)
Well I guess this is growing up (but everybody's gone....)


Thin dark line really exist!
http://www.thindarkline.com/
http://en.wikipedia.org/wiki/Thin_Dark_Line_(band)

Important: The song above is NOT stored on the Chordie server. The original song is hosted at www.guitaretab.com. Chordie works as a search engine and provides on-the-fly formatting. Chordie does not index songs against artists'/composers' will. To remove this song please click here.

Text color:
Chord color:
Chord grids: 
Font size:    
Page size: 

A C Cm7 F G
variations - click chord images

Login - add to songbook

Transpose chords

Tuning

Rating click stars to rate

Layout
Accuracy

SHARE PAGE  




You need to log in to post comments