Chordie logo


You Are Mine  Third Day

|---------0------2-------2p0---------------------------------|


|-3------------------------------0-------2-----3-------2-----|


|-----2-----2---------2-----2p0------0-----0-------0-----0---|

|---0---------0-----0--------------2---------2---2---------2-|
|--------------------------------0-----0-------0-----0-------|
|-0-----0--------0-------------------------------------------|
|-------------------------------------3p2------------|
|-1-------3------0-----1p0---------------3-----------|
|-----0-----0--------0----2p0-2---2------------------|
|---0---------0----0------------0----------0---------|
|-3-----0--------3-----------------------------------|
|-----------------------------0-----0----------0-----|
For my [Bsus]heart to break
And you have [D2]done it
For what [D2/C#]seems the millionth [E]time
Whenever [E]I hear
Of your s[Bsus]aving grace
And how you [D2]gave your life
[D2/C#]In exchange for mine[E]
N.C. Bsus E
Sometimes I wonder why you even love me
And why you [Bsus]ever chose to call me[A] child
Then I [E]remember
It’s by your [Bsus]sacrifice
That I can [D2]say that
I am [D2/C#]yours and you are [E]mine

It doesn’t take much
For me to shed a tear
And you have done so many things
To make me cry
Whenever I think
Of all that I’ve done wrong
And everything that you have done
To make it right

It doesn’t take much
For my heart to break
And you have done it
For what’s seems the millionth time

(INTRO LICK TO FINSIH SONG, STRUM E CHORD)

CHORDS
E 000232 (open D shape)
Bsus x02230 (open Asus Shape)
D2 x32020 (open C2 shape
D2/C# x22020
A 520033 (open G shape)

Important: The song above is NOT stored on the Chordie server. The original song is hosted at www.guitaretab.com. Chordie works as a search engine and provides on-the-fly formatting. Chordie does not index songs against artists/composers will. To remove this song please click here.

Text color:
Chord color:
Chord grids: 
Font size:    
Page size: 

A Bsus D2 D2/C# E
variations - click chord images

Login - add to songbook

Transpose chords

Tuning

Rating click stars to rate

Layout
Accuracy

SHARE PAGE  




You need to log in to post comments