Guitar Tabs, Chords and Lyrics


To Kill This   This Providence



Intro/Verse 
e ---0----0-------0----0----|
B ---0----0-------0----0----|
G ---1----4-------2----2----|
D ---2----4-------2----2—-2x|
A ---0----0-------0----0----|
E ---0----0-------x----2----|
    x3   x13     x9    x9


With a lack of self-esteem…

Pre-Chorus (x4)
e ---0-----0-----0----0-----|
B ---0-----0-----0----0-----|
G --11-----9----14----9-----|
D ---x-----x-----x----x-----|
A ---9-----7----12----7-----|
E ---0-----0-----0----0-----|
    x4   x4    x4    x4          
 
Now it all comes down to… 


Chorus (x2)
e ---0-----0-----0-----0-----0-----0-----0-----|
B ---0-----0-----0-----0-----0-----0-----0-----|
G ---2-----2-----1-----2-----4-----6-----7-----|
D ---2-----2-----2-----2-----4-----6-----7-----|
A ---0-----0-----2-----0-----2-----4-----5-----|
E ---x-----2-----0-----x-----0-----0-----0-----|
     x14   x7    x7    x7    x4    x7    x2

And I keep telling myself…


Verse (x2)
e ---0-----0-------------0---|
B ---0-----0-------------0---|
G ---2-----2-------------1---|
D ---2-----2-------------2---|
A ---0-----0-------------2---|
E ---x-----2-------------0---|
     x12   x12           x5 after 2nd time only

Its time to kill this...

Chorus (x2)
e ---0-----0-----0-----0-----0-----0-----0-----|
B ---0-----0-----0-----0-----0-----0-----0-----|
G ---2-----2-----1-----2-----4-----6-----7-----|
D ---2-----2-----2-----2-----4-----6-----7-----|
A ---0-----0-----2-----0-----2-----4-----5-----|
E ---x-----2-----0-----x-----0-----0-----0-----|
     x14   x7    x7    x7    x4    x7    x2

And I keep telling myself…


Bridge (x1)
e ---0-----0-----0-----0-----0-----0-----0-----0-----0-----0---|
B ---0-----0-----0-----0-----0-----0-----0-----0-----0-----0---|
G ---4-----7-----2-----1-----4-----7-----2-----2-----1-----7---|
D ---4-----7-----2-----2-----4-----7-----2-----2-----2-----7---|
A ---2-----5-----0-----2-----2-----5-----0-----0-----2-----5---|
E ---0-----0-----x-----0-----0-----0-----x-----2-----0-----0---|
     x7    x7    x7    x7    x7    x7    x7    x1    x1    x1

Sorry but it’s not easy…



Pre-Chorus (x4)
e ---------------------------------|
B -------0------0--------0--------0|
G -----2---2--2---2----2---2----2--|
D ---0--------------4--------2-----|
A ----------4----------------------|
E ---------------------------------|

Now it all comes down to…


Chorus (x2)
e ---0-----0-----0-----0-----0-----0-----0-----|
B ---0-----0-----0-----0-----0-----0-----0-----|
G ---2-----2-----1-----2-----4-----6-----7-----|
D ---2-----2-----2-----2-----4-----6-----7-----|
A ---0-----0-----2-----0-----2-----4-----5-----|
E ---x-----2-----0-----x-----0-----0-----0-----|
     x14   x7    x7    x7    x4    x7    x2

And I keep telling myself…


End on
e ---0---|
B ---0---|
G ---2---|
D ---2---|
A ---0---|
E ---x---|
     x3


Important: The song above is NOT stored on the Chordie server. The original song is hosted at www.guitaretab.com. Chordie works as a search engine and provides on-the-fly formatting. Chordie does not index songs against artists/composers will. To remove this song please click here.

This song is displayed as text-only. Transposing and tuning is only available for chordpro-songs.

Login - add to songbook

Rating click stars to rate

Layout
Accuracy

SHARE PAGE  




You need to log in to post comments