Black And White

Three Dog Night

------14-14------14-14------14-----------------|

--12---------11---------12------12-11------11--|
---------------------------------------13------|
-----------------------------------------------|
-----------------------------------------------|
-----------------------------------------------|
------14-14------14-14------14-----------------|
--12---------11---------12------12-11------11--|
---------------------------------------13------|
-----------------------------------------------|
-----------------------------------------------|
-----------------------------------------------|
------11--14--16--14------14----------12---------|
--12------------------17------17--16------16--14-|
-------------------------------------------------|
-------------------------------------------------|
-------------------------------------------------|
-------------------------------------------------|

 BF#BF#
The ink is black, the page is white,

 BEF#
together we learn to read and write.

 BF#BF#
The child is black, the child is white,

 BEF#
the whole world looks, upon the sight

 BEB
a beautiful sight.      

BRIDGE:

 F#B
And now a child, can understand,

 F#
that this is the law, of all the land,

 F#EEbC#
all the land.        

2nd VERSE:

The world is black, the world is white

it turns by day, and then by night.

the child is black, the child is white,

together they grow, to see the light,

to see the light.

2nd BRIDGE:

And now a land, can plainly see.

that this is a cause of liberty, liberty.

Any questions, comments, or complaints, feel free
to E-mail me or post a thread at this sight.


B C# E Eb F#
variations - click chord images
Transpose chords:
Tuning:
Cool service:
View: Size:
A  A  A
Rating:
Layout:
  • Currently 4/5 Stars.
  • 1
  • 2
  • 3
  • 4
  • 5
 
Accuracy:
  • Currently 4/5 Stars.
  • 1
  • 2
  • 3
  • 4
  • 5
 
click stars to rate
Chordie recommends:
Learn to play guitar with video-based, online guitar lessons at JamPlay.com
Songbook:
Login to add this song to your songbook
Support the artist
Preview/buy this song
MSN Music
Why this non-profit ad?

 
login to add comments/video/corrections