Guitar Tabs, Chords and Lyrics


Atlantic   Thrice



Artist: Thrice
Album:	Vheissu
Song:	Atlantic
Tabber:	kylegumby(at)gmail(dot)com


First things first: this is in standard tuning, so adjust accordingly if your singer
cut it.

Sounds good to me - let me know if you have issues.  Feel free, if you're doing this
to play the C and B notes on the B string; it'll sound a little better that way.

|----------------------------|
|----------------------------|
|----5-4-0---2----5-4-0------|
|--2-------4----2-------4-2--| (x2)
|----------------------------|
|----------------------------|

|----------------------------|
|----------------------------|
|----5-4-0---2----5-4-0------|
|----------4------------4-2--| (x2)
|--3------------3------------|
|----------------------------|

Also, if you're playing the song acoustic, here's something to play around with that
be cool if you can make it sound better than I can.  I tried working this out exactly, but
pretty rough and I don't have the time (or the patience) to sweat it all out.  So this 
the quick and dirty version - play around with it, it should match up reasonably well
a small amount of tweaking.

Hit the natural harmonics on the following frets:
|----------------------------|
|------7------------7--------|
|----5------------5----------|
|--------5---9--------5---7--| (x2)
|--7-------9----7-------9----|
|----------------------------|

|----------------------------|
|------7------------7--------|
|----5------------5----------|
|--------5---9--------5---7--| (x2)
|----------9------------9----|
|--7------------7------------|


Incidentally, if you do work the harmonics out then please post it or e-mail me or


Important: The song above is NOT stored on the Chordie server. The original song is hosted at www.guitaretab.com. Chordie works as a search engine and provides on-the-fly formatting. Chordie does not index songs against artists'/composers' will. To remove this song please click here.

This song is displayed as text-only. Transposing and tuning is only available for chordpro-songs.

Login - add to songbook

Rating click stars to rate

Layout
Accuracy

SHARE PAGE  




You need to log in to post comments