Guitar Tabs, Chords and Lyrics


One Bullet  Thunder

-------------------------------------------------------------------------



-------------------------------------------------------------------------

       [Em]    [C]       [F#m7b5]                [B7]            [Em]     [C]     [F#m7b5]        [B7]                
e|-7b8b7~------7-8-10-8-7----7------------------------------------------|
B|------------------------10---10-8~---7b8b7-3-5~-----------------------|
G|----------------------------------------------------------------------|
D|-----------------------------------------------------8b7-5---5/7~-----|
A|-----------------------------------------------------------7----------|
E|----------------------------------------------------------------------|

******
VERSE1
******
[Em]   One bulle[Emaddb13]t, one gun,[Em6]   one dead b[Emaddb13]ut we all bleed some
[Em]     And you [A]know it’s such a shame [Em]    [C]
[Em]   One lif[Emaddb13]e,  more tears,[Em6]    I can’t believe that it’s [Em7]going on here
[A]   God [C]knows it’s such a shame [Em]
******
CHORUS
******
[D]   Take a look at Am[G]erica, ‘cause it’[B7]s much too late[Em]
Once the [D]horse has run you ca[Am]n’t go back and shut the gate[Emadd9]        [Em]
[D]   If we ever [Csus2]see a day, when all [Em]innocence is [A]gone
[C]   Tell me [B7]what have we become
*********
INTERLUDE (rhythm guitar + lead guitar)
*********
   [Em]       [C]     [F#m7b5]                [B7]                                                 
e|----------------------------------------------------------------------|
B|-----3/5-8~---11b10-8---8-10------------------------------------------|
G|----------------------9-----------------------------------------------|
D|-----------------------------8/9~--7-8-7-5----------------------------|
A|-------------------------------------------7~-------------------------|
E|----------------------------------------------------------------------|

******
VERSE2
******
[Em]   One chil[Emaddb13]d,   in the way,[Em6]    wrong time at th[Emaddb13]e    wrong place
[Em]    And you [A]know it’s such a shame [Em]    [C]
[Em]   Too young t[Emaddb13]o live in fear
But you [Em6]ain’t got the time to be a [Em7]kid ‘round here
[A]   Lord [C]knows it’s such a shame [Em]
******
CHORUS
******
[D]   You shouldn’t have to worr[G]y now, when you’ve [B7]barely reached fif[Em]teen
[D]  You’ve got enough to co[Am]pe with anyway[Emadd9]        [Em]
[D]   If we can’t prot[Csus2]ect the young from them[Em]selves it would [A]seem
We’re [C7sus2]watching as our [B7sus2]future slides away [Em]
******
BRIDGE
******
[Am9]Why, in this c[Am6add9]razed new millennium[Am9],
do we st[Am6add9]ill have so much to lea[Em]rn? Tell me w[Bm7]hy
When it’s c[Am9]lear, in the pa[Am6add9]st every scared kid would r[Am9]un
Am6add9 B7*
Now he’s wrapping his fists ‘round a gun B7/G = 324242
B7/A B7/G B7/F# B7/F# = 224242
And somebody dies
******
VERSE3
******
[Em]   One bull[Emaddb13]et,   one gun,[Em6]    one dead a[Emaddb13]nd we all bleed some
[Em]    And you [A]know it’s such a shame [Em]    [C]
[Em]   One life[Emaddb13],      more tears[Em6],   I can’t believe that it’s [Em7]going on here
[A]   And you [C]know it’s such a shame [Em]    [A]
[F#m7b5]       You kn[B7]ow it’s such a shame [Em]    [A]
[C7sus2]        You[B7sus2] know it’s such a shame                            C* = x32013
*****
OUTRO (rhythm guitar + lead guitar)
*****
Em Emaddb13 Em6 Em7 A C* Em
e|-7b8b7~---------7-8-10-8-7--------------------------------------------|
B|---------------------------10-8-7-8~--7b8b7-5-------------------------|
G|----------------------------------------------7-6----------7----------|
D|--------------------------------------------------7-5-7/9---8b7-7-5---|
A|--------------------------------------------------------------------7~|
E|----------------------------------------------------------------------|


=========================================================================
Comment, rate, appreciate!

Important: The song above is NOT stored on the Chordie server. The original song is hosted at www.guitaretab.com. Chordie works as a search engine and provides on-the-fly formatting. Chordie does not index songs against artists'/composers' will. To remove this song please click here.

Text color:
Chord color:
Chord grids: 
Font size:    
Page size: 

A Am Am6add9 Am9 B7 B7sus2 Bm7 C C7sus2 Csus2 D Em Em6 Em7 Emadd9 F#m7b5 G
variations - click chord images

Login - add to songbook

Transpose chords

Tuning

Rating click stars to rate

Layout
Accuracy

SHARE PAGE  




You need to log in to post comments