Guitar Tabs, Chords and Lyrics


Equinox Of The Gods   Tiamat



Song: Equinox of the Gods

Tuning is standard; e, b ,g ,d, a, E

Intro

Guitar 1:
E|----------------------------------|----------------------------------|
B|----------------------------------|----------------------------------|
G|----------------------------------|----------------------------------|
D|--6-6-6-6-8-8-9-9-9-9-8-8-6-6-6-6-|--7-7-7-7-7-7-7-7-----------------|
A|----------------------------------|------------------6-6-6-6-6-6-6-6-|
E|----------------------------------|----------------------------------|


|----------------------------------|----------------------------------|
|----------------------------------|----------------------------------|
|----------------------------------|--7-7-7-7-7-7-7-7-8-8-8-8-8-8-8-8-|
|--6-6-6-6-8-8-9-9-9-9-8-8-6-6-6-6-|----------------------------------|
|----------------------------------|----------------------------------|
|----------------------------------|----------------------------------|

Repeat this 2 times, when the second time starts guitar 2 plays

Guitar 2:
|------------------------|------------------------|
|------------------------|------------------------|
|------------------------|------------------------|
|--6----6--6--6----6--6--|--7----7--7--6----6--6--|
|--6----6--6--6----6--6--|--7----7--7--6----6--6--|
|--4----4--4--4----4--4--|--5----5--5--4----4--4--|

|--------------------------|--------------------------|
|--------------------------|--------------------------|
|--------------------------|--------------------------|
|--6--6--6--6--6--6--6--6--|--6--6--6--6--6--6--6--6--|
|--6--6--6--6--6--6--6--6--|--6--6--6--6--6--6--6--6--|
|--4--4--4--4--4--4--4--4--|--4--4--4--4--4--4--4--4--|


Part 1


|--------------------------|--------------------------|
|--------------------------|--------------------------|
|--------------------------|--------------------------|
|--------------------------|--------------------------|
|--6--6--6--6--6--6--6--6--|--6--6--6--6--6--6--6--6--|
|--4--4--4--4--4--4--4--4--|--4--4--4--4--4--4--4--4--|

|--------------------------|--------------------------|
|--------------------------|--------------------------|
|--------------------------|--------------------------|
|--------------------------|--------------------------|
|--7--7--7--7--7--7--7--7--|--7--7--7--7--7--7--7--7--|
|--5--5--5--5--5--5--5--5--|--5--5--5--5--5--5--5--5--|

Repeat 2 times...

Part 2


|--------------------|--------------------|
|--------------------|--------------------|
|--------------------|--------------------|
|--10-------9--------|--6--------7--------|
|--10-------9--------|--6--------7--------|
|--8--------7--------|--4--------5--------|

Repeat 2 times

At the end of the part 2 when Johan sings „We can make it happen“ repeat the Am chord 
few times
Part 3


|--------------------|--------------------|
|--------------------|--------------------|
|--------------------|--------------------|
|--10-------9--------|--6--------7--------|
|--10-------9--------|--6--------7--------|
|--8--------7--------|--4--------5--------|

|--------------------|--------------------|
|--------------------|--------------------|
|--------------------|--------------------|
|--7-----------------|--------------------|
|--7-----------------|--------------------| < Let ring
|--5-----------------|--------------------|

Repeat 2 times

Chorus:

|--------------------------|----------------------|
|--------------------------|----------------------|
|--------------------------|----------------------|
|--10-10-10-10-9-9-9-9-----|--6-6-6-6-7-7-7-7-----|
|--10-10-10-10-9-9-9-9-----|--6-6-6-6-7-7-7-7-----|
|--8--8--8--8--7-7-7-7-----|--4-4-4-4-5-5-5-5-----|

Repeat 4 times


Part 4

I am not sure about this part, it might be wrong.
|------------------------|
|------------0-----------|
|---------------0--------|
|------------------2-----|
|-------2----------------|
|--0---------------------|

Repeat this 16 times


Intro
Part 1
Part 2
Part 1
Part 2
Part 3
Chorus
Part 1
Part 2
Part 3
Part 4
Part 1
Part 2
Part 3 x2
(Same as intro)
Chorus


This song may have some mistakes(Part 4 prob.), but i am pretty sure that the most of it 
correct :) If you got anything to


Important: The song above is NOT stored on the Chordie server. The original song is hosted at www.guitaretab.com. Chordie works as a search engine and provides on-the-fly formatting. Chordie does not index songs against artists'/composers' will. To remove this song please click here.

This song is displayed as text-only. Transposing and tuning is only available for chordpro-songs.

Login - add to songbook

Rating click stars to rate

Layout
Accuracy

SHARE PAGE  




You need to log in to post comments