Guitar Tabs, Chords and Lyrics


Kamikaze  Tierra Santa

-----------------------------------------------------------|


-----------------------------------------------------------|


-5s2-----5s2-----5s2---------------------------------------|

-5s2-----5s2-----5s2-----3-5-------------------------------|
-3s0-0-0-3s0-0-0-3s0-0-0-3-5-------------------------------|
-------------------------1-3-------------------------------|
-----------------------------------------------------------|
-----------------------------------------------------------|
-----------------------------------------------------------|
-5--7-8-7--------------------------------------------------|
-5--7-8-7--------------------------------------------------|
-3--5-6-5--------------------------------------------------|
[C5]    [A5]                                 
[D5]Vuela en su caza infernal
[D5]llevando el fuego mortal
[D5]su meta es su sueño
D5 Riff 1 x2
su sueño es la muerte

[D5]Nacido para luchar
[D5]morir por un ideal
[D5]batirse en el cielo
D5 Riff 1 x2
le hará ser un héroe

Riff 2
Aunque sus alas se rompan
Riff 2
y no pueda volar
[C5]y su destino le acerque al fi[A5]nal

Vuela en tu [D5]sueño
[D5]danza en el viento
y la [A#5]noche n[C5]unca llega[D5]
[D5]Hoy serás héroe
[D5]abraza la muerte
porque tu [A#5]nombre ya [C5]nunca mori[D5]

(Ahora viene el solo que me es imposible de sacar)

[D5]Veloz, sin miedo a acabar
[D5]con su destino fugaz
D5 Riff 1 x2
sólo una duda atormenta su mente

[D5]Que puedan arrebatar
[D5]su sueño sin terminar
D5 Riff 1 x2
sin meta, él ya nunca podrá ser un héroe

Riff 2
Aunque sus alas se rompan
Riff 2
y no pueda volar
[C5]y su destino le acerque al fi[A5]nal


[D5]Vuela en tu sueño                |
D5 |
danza en el viento |
A#5 C5 D5 |
y la noche nunca llegará |
D5 |x2
Hoy serás héroe |
D5 |
abraza la muerte |
A#5 C5 D5 |
porque tu nombre ya nunca morirá |


Riff 1 x4

Important: The song above is NOT stored on the Chordie server. The original song is hosted at www.guitaretab.com. Chordie works as a search engine and provides on-the-fly formatting. Chordie does not index songs against artists'/composers' will. To remove this song please click here.

Text color:
Chord color:
Chord grids: 
Font size:    
Page size: 

A#5 A5 C5 D5
variations - click chord images

Login - add to songbook

Transpose chords

Tuning

Rating click stars to rate

Layout
Accuracy

SHARE PAGE  




You need to log in to post comments