Guitar Tabs, Chords and Lyrics


Pain   Tiger Army



Pain by Tiger Army
Track 7 off of the album "Music From Regions Beyond"
Words by Nick 13

Much respect to Nick 13, Jeff Roffredo, James Meza and all people who contributed to the 
through the years.

Tab by Brian Will (BWill20)
bwill2030@yahoo.com for any corrections, comments.


Standard Tuning


The opening riff of the song acts as the main riff throughout all verses and choruses. 
song is quite simple due to this constant beat. I'm just posting up the chord pattern, 
need to listen to the song to get the timing and strumming pattern right.

|----|----|--3-|-------------|
|--8-|--5-|--3-|--7--8--7----|
|--9-|--5-|--4-|--7--7--7----|
|--9-|--5-|--5-|--7--7--7----|
|--7-|--3-|--5-|--5--5--5----|
|--0-|----|--3-|-------------|


Verse 1.
|----------------------------|--------------|-3-----------------------|----|
|----------------------------|--5-----------|-3-----------------------|-7--|
|----------------------------|--5-----------|-4-----------------------|-7--|
|--2-------------------------|--5-----------|-5-----------------------|-7--|
|--2-------------------------|--3-----------|-5-----------------------|-5--|
|--0-------------------------|--------------|-3-----------------------|----|
1.regret sits heavy in your chest until sometimes it gets so hard to breathe
2.sometimes it just wont go away then you start to feel it'll never leave

|-------------------------------------|--------------|-3--------------|----|
|-8-----------------------------------|-5------------|-3--------------|-7--|
|-9-----------------------------------|-5------------|-4--------------|-7--|
|-9-----------------------------------|-5------------|-5--------------|-7--|
|-7-----------------------------------|-3------------|-5--------------|-5--|
|-0-----------------------------------|--------------|-3--------------|----|
3.and when you think back on those times it seems so close just beyond your reach
4.but the past vanishes like smoke from a cigarette in the night breeze

Then that riff stays when the chorus starts.

CH1. please stop this pain, hurt for so long
CH2. pain, hurt for so long I've felt this way for so long


Post Chorus Riff
|------7~--|----------|----3-----3------|----------------------|
|----8-----|------5~--|------3-----3----|-----7----8p7---7-----|
|----------|----5-----|--------4-----4--|-------7------7---7---|
|--9-------|--5-------|--5--------------|--7-------------------|

Important: The song above is NOT stored on the Chordie server. The original song is hosted at www.guitaretab.com. Chordie works as a search engine and provides on-the-fly formatting. Chordie does not index songs against artists'/composers' will. To remove this song please click here.

This song is displayed as text-only. Transposing and tuning is only available for chordpro-songs.

Login - add to songbook

Rating click stars to rate

Layout
Accuracy

SHARE PAGE  




You need to log in to post comments