Guitar Tabs, Chords and Lyrics


Hallucinations   Tim Buckley








Date: Sat, 23 May 1998 11:49:24 -0400



Hallucinations
(Beckett/Buckley)

TIM BUCKLEY
From Goodbye And Hello, 1967

This is not a complete transcription, but it covers the verses.

Verse 1:
Gm
I saw you walking
-----6------5-----------------------|
------------------8-----6_8_6-------|
---------0-----0-----0---------7----|
------------------------------------|
------------------------------------|
------------------------------------|  Gm
Only yes - ter - day - ay-ay - ay
     ---6---5---------6----|
     -----------8----------|
     -----0---0---0--------|
     ----------------------|
     ----------------------|
(Gm) ----------------------|
When I ran  to  catch you
----5----5------6---5----------5---6----5----------|
-6-----6----------------8------------------8--6--8-|
---------------------------------------------------|
---------------------------------------------------|
---------------------------------------------------|
---------------------------------------------------| Gm
You disappeared and the street was gray-ay-ay-ay-ay
(Gm)                         F
The candle died, now you are gone
        Bb            C
For the flame was too bright
          --3--5-6-8-6-5------------6-8-5--------|
          ---------------8-6-8-6----------8-6-8--|
          -----------------------7---------------|
          ---------------------------------------|
          ---------------------------------------|
          ---------------------------------------| Gm
N------------------------------------------------|ow you are go-o-o-o-o-o-o-o-o-o-one

Verse 2:

I heard you laughing
With your laugh of gold
When I called out to you
Silence returned and the air was cold

The castle fell, now you are gone
And no more rings the bell
Now you are gone

Verse 3:

I found your letter
On the day it rained
When I tore it open
There in my hands only ash remained

The castle fell, now you are gone
And no more rings the bell
Now you are gone

Verse 4:

I felt you breathing
As I fell asleep
When I reached to touch you
No one was there and the night was deep

The candle died, now you are gone
For the flame was too bright
Now you are gone

(repeat verse 1:)

Verse 1:

I saw you walking
Only yesterday
When I ran to catch you
You disappeared and the street was gray

The castle fell, now you are gone
And no more rings the bell
Now you are gone


*******
by Dann Butterfield


Important: The song above is NOT stored on the Chordie server. The original song is hosted at www.guitaretab.com. Chordie works as a search engine and provides on-the-fly formatting. Chordie does not index songs against artists'/composers' will. To remove this song please click here.

This song is displayed as text-only. Transposing and tuning is only available for chordpro-songs.

Login - add to songbook

Rating click stars to rate

Layout
Accuracy

SHARE PAGE  




You need to log in to post comments