Guitar Tabs, Chords and Lyrics


Grown Men Dont Cry   Tim McGraw



----------------------------------------------------------------------------
Grown Men Don't Cry - Tim Mcgraw
----------------------------------------------------------------------------
Tabbed by:  Baghdad Brad
Email:  bcweitzel@yahoo.com


This is my first published guitar tab, so go easy on me.  You'll have to listen to the
to get the correct timing, and keep in mind that, while this is close to the original, it
not the oiginal (if you want that, go buy the song book).  In other words, this is one 
those "I'm not gonna spend hours and hours and hours typing out exactly what you're
to
play in the correct timing" tabs. ;-)

That being said, I broke it down into two guitar parts.  Guitar 1 is mainly cleanly
the same part on all verses and choruses (except the intro, interlude, and the end).

Guitar 2, on the other hand, is really a filler and is played basically in the intro and
between lines in the verse. It sounds like in the first verse guitar 2 is just cleanly
 For the rest of the song it sounds like there's a string accompanyment.  Not all of us 
a string quartet in our pocket, so continuing the pattern sounds pretty darn good.

I know the fingering positioning for this could be better elsewhere, but this is the
way I found to achieve that clean pickin' feel throughout the entire phrase.


Guitar 1 (Capo on 3rd Fret):

	Verse and Chorus (with few variations and fillers included)

	|--------------------------------|--------------------------------|
	|--------3---------------3-------|--------1---------------1-------|
	|----0-------0-------2-------2---|----0-------0-------0-------0---|
	|----------------0---------------|--------------------------------|
	|--------------------------------|0---------------3---------------|
	|3-------------------------------|--------------------------------|

	(Note: Follows G/D/Am7/C chord fingering progression)


Guitar 2 (Capo on 3rd Fret):

	|--------7---5-----------7---8---|--------7---3-------------------|
	|----3---------------------------|--------------------3---1---0---|
	|0-------------------------------|--------------------------------|
	|--------------------------------|--------------------------------|
	|--------------------------------|--------------------------------|
	|--------------------------------|--------------------------------|


	|--------7---5-----------7---8---|--------7---3-------------------|
	|1---3---------------------------|--------------------3---1---0---|
	|--------------------------------|--------------------------------|
	|--------------------------------|--------------------------------|
	|--------------------------------|--------------------------------|
	|--------------------------------|--------------------------------|


	|--------------------------------|
	|1---3---------------------------|
	|--------------------------------|
	|--------------------------------|
	|--------------------------------|
	|--------------------------------|


Interlude (strummed chords):

	Bbsus   F   Dm7  C  Bbsus  A  D (last strum hammer 2 on high e for effect)

	Chord Diagrams:

  	  Am7  Bbsus  C    D   Dm7    F    G    A
	E -X-   -X-  -X-  -X-  -X-   -1-  -3-  -0-
	A -0-   -1-  -3-  -X-  -X-   -3-  -2-  -0-
	D -2-   -1-  -2-  -0-  -0-   -3-  -0-  -2-
	G -0-   -3-  -0-  -2-  -2-   -2-  -0-  -2-
	B -1-   -3-  -1-  -3-  -3-   -1-  -3-  -2-
	E -0-   -1-  -0-  -2-  -1-   -1-  -3-  -0-

End:

	|--------------------------------|--------------------------------|
	|--------3---------------3-------|--------3---------------3-------|
	|----0-----------------------0---|----0-----------------------0---|
	|------------4-------4-----------|------------4-------4-----------|
	|--------------------------------|--------------------------------|
	|3-------------------------------|3-------------------------------|


	|--------------------------------|------------------3-------------|
	|--------3-----------------------|3-----------------3-------------|
	|----0---------------------------|------------------0-------------|
	|------------4-------4-----------|------4-----------0-------------|
	|--------------------------------|------------------2-------------|
	|3-------------------------------|------------------3-------------|

One of these days I'll figure out the picked part to the interlude, but other things are calling.

Special thanks to DaddyBk9 for his original chord progression.  It was a big help!


Important: The song above is NOT stored on the Chordie server. The original song is hosted at www.guitaretab.com. Chordie works as a search engine and provides on-the-fly formatting. Chordie does not index songs against artists'/composers' will. To remove this song please click here.

This song is displayed as text-only. Transposing and tuning is only available for chordpro-songs.

Login - add to songbook

Rating click stars to rate

Layout
Accuracy

SHARE PAGE  




You need to log in to post comments