Guitar Tabs, Chords and Lyrics


Its Your Love Acoustic  Tim McGraw

       [G]          [D/F#]             [C(add9]        [D/A]      [C(add9]                            
e-------------------------------3-------2------3---------|
B------3----------3------3-----0-0-----3-3----3-3--------|
G-----0-0--------0-0----2-2---0---0---2---2--0---0-------|
D----0---0------0---0--0---0-----------------------------|
A----------------------------3------3-------3-------3----|
E--3-------3--3-------2----------------------------------


Verse
    [G]           [D/F]                 [Em]              [C(add9]                         
e------------------------------------------------3-------------|
B----3-------3------3------3------0-------0-----3-3---------3--|
G---0-0-----0-0----2-2----2-2----0-0-----0-0---0---0--0----0---|
D--0---0---0---0--0---0--0---0--2---2---2---2-----------0h2----|
A--------------------------------------------3-------3---------|
E-3-----3-3-----2-------2------0------0------------------------|repeat 1x

Dancing in the dark...
Better than I was...

Bridge(before chorus)
  [D/F#]      [G]    [D/F#]      [Em]               [C(add9]            [D]                          
e----0--3--------0-0-------------3-----3----2-2-2-2--------|
B---3---3-3---3-3--0------0-----3-3---3-3---3-3-3-3--------|
G-------0--0--2----0-----0-0---0---0-0---0--2-2-2-2--------|
D-0-----0---0-0----2--2h4---4---------------0-0-0-0--------|
A-0-----2----------2----------3-----3----------------------|
E-2-----3----------0---------------------------------------|

Chours
It's you[G] love, It just does some[D/F#]thin to me.
It sends a shock right[Em] through me, I can't g[C(add9]et enough.
And if yo[G]u wonder, about the spe[D/F#]ll I'm under,
[C(add9]It's you[D/C]r lo[C(add9]ve.


Bridge(before chorus)

e-3--5-5/7-7-8-10-8-7-------------7---------------10p8p7-8-10-8-7-8---|
B---------------------10/12-10-10-7h8p7-7-8-10-7-8-----------------8--|
G-4--5-5/7------------------------7-----------------------------------|
D---------------------------------------------------------------------|
A---------------------------------------------------------------------|
E---------------------------------------------------------------------|				


Important: The song above is NOT stored on the Chordie server. The original song is hosted at www.guitaretab.com. Chordie works as a search engine and provides on-the-fly formatting. Chordie does not index songs against artists'/composers' will. To remove this song please click here.

Text color:
Chord color:
Chord grids: 
Font size:    
Page size: 

D D/C D/F D/F# Em G
variations - click chord images

Login - add to songbook

Transpose chords

Tuning

Rating click stars to rate

Layout
Accuracy

SHARE PAGE  




You need to log in to post comments