Chordie logo

The Botten Is Ndd   Timbuktu



The båtten is nådd
tabbed by: Zucconi

C                F                            C   
|---------------------------------------------|
|--3-----------------------------------3------|        
|-----2---0p2p3---3--0-0p2--2--0---------2----|        
|-----0-----------2------------0---------0----|       
|-----1-----------1------------1---------1----|  
|-----0-----------0------------0---------0----|  x2        


Am        G        F
|-----------3------1------1------|
|--0-----------------------------|
|-----2--------0-----3------3----|
|-----2--------0-----2------2----|
|-----1--------0-----1------1----|


Important: The song above is NOT stored on the Chordie server. The original song is hosted at www.guitaretab.com. Chordie works as a search engine and provides on-the-fly formatting. Chordie does not index songs against artists/composers will. To remove this song please click here.

This song is displayed as text-only. Transposing and tuning is only available for chordpro-songs.

Login - add to songbook

Rating click stars to rate

Layout
Accuracy

SHARE PAGE  

You need to log in to post comments