Tiptoe Thru The Tulips For Uke

Tiny Tim

 EbEb(iiEb7AbAb(iiAbmAbm(ii
a------6-------1-------4-------6-------3-------2-------6
e------3-------3-------3-------4-------4-------4-------4
c------3-------3-------3-------3-------3-------3-------3
g------3-------3-------3-------5-------5-------4-------4


 Bb7Bb7(iiGmGm(iiC7FAdim
a------5-------1-------5-------1-------3-------3-------3-(6)
e------4-------1-------3-------3-------3-------5-------5
c------5-------2-------2-------2-------4-------5-------3
g------3-------1-------3-------3-------3-------5-------5


 Bb7(ii
 Eb(iiBb7(ii
                                     Tiptoe through the window

 EbEb7AbAbm(ii
By the window, that is where I'll be

 EbBb7EbAb(iiEb
Come tiptoe through the tulips with me

 Bb7(ii
Oh,

 EbBb7
Tiptoe from the garden

 EbEb7AbAbm
By the garden of the willow tree

 EbBb7EbAb(iiEbEb7
And tiptoe through the tulips with me

 Ab(iiGm(iiC7
Knee deep in flowers we'll stray

 GmFBb7
We'll keep the showers away

 EbBb7
And if I kiss you in the garden

 EbEb7AbAbm
In the moonlight, will you pardon me?

 EbBb7EbAb(iiEbBb7(ii
And tiptoe through the tulips with me

Solo

 EbBb7EbEb7AbAbm
 EbBb7EbAb(iiEbEb7

 Ab(iiGm(iiC7
Knee deep in flowers we'll stray

 GmFBb7
We'll keep the showers away

 EbBb7
And if I kiss you in the garden

 EbEb7AbAbm
In the moonlight, will you pardon me?

 EbBb7EbEb7Ab(iiAbAdim
And tiptoe through the tulips with me

 Eb(iiEb(ii)--Bb7--Eb

Ab Abm Adim Bb7 C7 Eb Eb7 F Gm
variations - click chord images
Transpose chords:
Tuning:
Cool service:
View: Size:
A  A  A
Rating:
Layout:
  • Currently 2.8/5 Stars.
  • 1
  • 2
  • 3
  • 4
  • 5
 
Accuracy:
  • Currently 2.1/5 Stars.
  • 1
  • 2
  • 3
  • 4
  • 5
 
click stars to rate
Songbook:
Login to add this song to your songbook
IMPORTANT: The song above is NOT stored on the Chordie server. The original song is hosted at www.guitaretab.com. Chordie works as a search engine and provides on-the-fly formating. Chordie does not index songs against artists/composers will. To remove this song please click here.

 
login to add comments/video/corrections

mrcheld (report comment to admin):
http://www.guitaretab.com/t/tiny-tim/131329.html

Things seem off

24.200.221.242