Guitar Tabs, Chords and Lyrics


Amnesia  Toad The Wet Sprocket

|--0----0----0----0----0---0--|--0----0----0----0----0-------|


|--0----0----0----0----0---0--|--0----0----0----0----0-------|


|--0h2--0h2--0----0----0---0--|--0----0----0----0----0----0--|

|--0h2--0h2--0h2--0h2--0h2-2--|--0h2--0h2--0h2--0h2--0h2--0--|
|--0----0----0h3--0h3--0h3-3--|--0h2--0h2--0h2--0h2--0h2-----|
|------------0----0----0---0--|--0----0----0----0----0-------|
|--0----0----0----0----0---0--|--0----0----0----0----x--x--x--x--|
|--0----0----0----0----0---0--|--0----0----0----0----x--x--x--x--|
|--0h2--0h2--0----0----0---0--|--0----0----0----0----x--x--x--x--|
|--0h2--0h2--0h2--0h2--0h2-2--|--0h2--0h2--0h2--0h2--x--x--x--x--|
|--0----0----0h3--0h3--0h3-3--|--0h2--0h2--0h2--0h2--x--x--x--x--|
|------------0----0----0---0--|--0----0----0----0----x--x--x--x--|
[Asus2]Here i n[Cmaj7]eed your help[Em]
[Asus2]deliver me fo[Cmaj7]m myself  [Em]
[Asus2]Take me wh[Cmaj7]ere i am wante[Em]d
Asus2 Cmaj7 fil1 1
or make me someone else

Asus2 Cmaj7 fil1 2

[Asus2]Never care wh[Cmaj7]at they said[Em]
[Asus2]forget about the thi[Cmaj7]ngs you read
[Em]it was somenthing you never know[Asus2], never see,[Cmaj7] never understan[Em]d
Asus2 Cmaj7 fil1 1
just leave it now if you can

chorus:
tell me
Asus2 Cmaj7 fil1 2
When they come for you
Asus2 Cmaj7 fil1 2
who will there to speak

Asus2 Cmaj7 fil1 1
and they come for you
[Asus2]Who will ther[Cmaj7]e be left to [G]speak for you?

SOLO

[Asus2]The final solution s ba[Cmaj7]ck in s[Em]tyle
[Asus2]we are the ones lett[Cmaj7]ing it r[Em]ide
[Asus2]never knew we we[Cmaj7]re so [Em]blind
Asus2 Cmaj7 fil1 1
amnesia in comfort, so unkind.

repeat chorus

[Asus2]       [Cmaj7]        [G]                      

Fill 2
|--0--0-----------|
|--0--0--3--1--0--|
|--0--0--0--0--0--|
|--2--2--2--2--2--|
|--2--2-----------|
|--0--0-----------|



Important: The song above is NOT stored on the Chordie server. The original song is hosted at www.guitaretab.com. Chordie works as a search engine and provides on-the-fly formatting. Chordie does not index songs against artists'/composers' will. To remove this song please click here.

Text color:
Chord color:
Chord grids: 
Font size:    
Page size: 

Asus2 Cmaj7 Em G
variations - click chord images

Login - add to songbook

Transpose chords

Tuning

Rating click stars to rate

Layout
Accuracy

SHARE PAGE  




You need to log in to post comments