Throw It All Away

Toad The Wet Sprocket

 G
 take your cautionary tales
 Em
and take your incremental gain
 C
and all the sycophantic games
 D
 and throw 'em all away

 G
 burn your tv in your yard
 Em
and gather 'round it with your friends
 C
and warm your hands upon the fire
 DG
 and start again   

 C
take the story you've been sold
 GEm
the lies that justify the pain
 C
the guilt that weighs upon your soul
 D
 and throw 'em all away

Fill (repeat through verse)
|----------------|------------------|
|---------8p7----|-----------8p7----|
|------7------7--|--------7------7--|
|--7h9-----------|--7-7h9-----------|
|----------------|------------------|
|----------------|------------------|


 G
 tear up the calendar you bought
 Em
and throw the pieces to the sky
 C
confetti falling down like rain
 DG
like a parade to usher in your life
 C
 take the dreams that should've died
 GEm
the ones that kept you lying awake
 CD
when you should've been all right 
 G
and throw 'em all away 

 FCGFCG
 with the time i waste on the life i never had
 FCGD
 i could've turned myself into a better man

Solo:

|-------------------------------------------|
|-------------------------------------------|
|------7-------7-------7---7h9--------------|
|--7h9-----7h9-----7h9---9------\7\5\2/4/5--|
|-------------------------------------------|
|-------------------------------------------|
|-------------------------------------------------------13--|
|------8-7p5---------10-8p7-----------12----13----15--------|
|----7-------7-----7--------9p7----------------12----12-----|
|--5-----------5/7----------------/12----12-----------------|
|-----------------------------------------------------------|
|-----------------------------------------------------------|


 C
 there is nothing you can buy
 GEm
and there is nothing you can save
 AmC
to fill the hole inside your heart 
 DEmG
 so throw it all away  
 CD
to fill the hole inside your heart 

 G
 help me to empty this house
 Em
the wool i've gathered all these days
 AmC
and thought i couldn't do without  
 DG
and throw it all away 


Am C D Em F G
variations - click chord images
Transpose chords:
Tuning:
Cool service:
View: Size:
A  A  A
Rating:
Layout:
  • Currently 2.8/5 Stars.
  • 1
  • 2
  • 3
  • 4
  • 5
 
Accuracy:
  • Currently 2.4/5 Stars.
  • 1
  • 2
  • 3
  • 4
  • 5
 
click stars to rate
Chordie recommends:
Learn to play songs at Jamplay.com with video guitar lessons
Songbook:
Login to add this song to your songbook
Support the artist
Preview/buy this song
MSN Music
Why this non-profit ad?

 
login to add comments/video/corrections