Guitar Tabs, Chords and Lyrics


1000 Meere  Tokio Hotel

-------------------------------------------------------------------------------



-------------------------------------------------------------------------------

[Abm]|4|    [Abm(#5] |4|      [Dbm]|4|     |[B]2|      |[E]0|      [Ebm]|6|      [E5]|7|      [Em7]|4|
|4| |5| |5| |4| |0| |7| |9| |4|
|4| |4| |6| |4| |1| |8| |9| |4|
|6| |6| |6| |4| |2| |8| |9| |2|
|6| |6| |4| |2| |2| |6| |7| |2|
|4| |4| |0| |0| |0| |0| |0| |0|

Intro :
"Die Straßen leer...."


Abm - Abm(#5) - Dbm - B x1
Abm - Abm(#5) - Dbm - E x1

Verse :

Abm - Abm(#5) - Dbm - Ebm x1
Abm - Abm(#5) - Dbm - Ebm - E5 - E5 x1

Chorus (2nd Guitar)
"Wir müssen nur noch 1000 Meere weit..."
e | --11--11---------11--12-11---9-------11--11---------------11--12--11--9---------|
b | -9--12--12--11--9--12-----12--12-11-9--12--12--11-12-14--9--12---------12-11--9-|
g | ----------11--11-----------------------------11---------------------------------|
d | --------------------------------------------------------------------------------|
a | --------------------------------------------------------------------------------|
E | --------------------------------------------------------------------------------|


Verse :
"Irgendwo ist der Ort...."

[Dbm]Abm [-]- [Ebm]Abm(#5) - Dbm - Ebm      x1
Abm - Abm(#5) - Dbm - Ebm - E5 - E5 x1

Chorus:
"Wir müssen nur noch 1000 Meere weit..."
e | --11--11---------11--12-11---9-------11--11---------------11--12--11--9------|
b | -9--12--12--11--9--12-----12--12-11-9--12--12--11-12-14--9--12---------12-11-|
g | ----------11--11-----------------------------11------------------------------|
d | -----------------------------------------------------------------------------|
a | -----------------------------------------------------------------------------|
E | -----------------------------------------------------------------------------|


Bridge :
"Niemand und Nichts nehmen wir mit..."

C5# - D5# - E5 - E5 - C5# - D5# - E5 - F5#

Ab5 - Ab5 - Eb5 - E5 x2

Chorus :
"Wir müssen nur noch 1000 Meere weit.."
e | --11--11---------11--12-11---9-------11--11---------------11--12--11-|
b | -9--12--12--11--9--12-----12--12-11-9--12--12--11-12-14--9--12-------|
g | ----------11--11-----------------------------11----------------------|
d | ---------------------------------------------------------------------|
a | ---------------------------------------------------------------------|
E | ---------------------------------------------------------------------|


[Dbm]    [-]  [Dbm]    [-]  [B]  [-]  [F#]                    [Dbm]    [-]  [Dbm]    [-]  [B]  [-]  [F#]   [-]  [Em7]                

Important: The song above is NOT stored on the Chordie server. The original song is hosted at www.guitaretab.com. Chordie works as a search engine and provides on-the-fly formatting. Chordie does not index songs against artists'/composers' will. To remove this song please click here.

Text color:
Chord color:
Chord grids: 
Font size:    
Page size: 

Abm B Dbm E E5 Ebm Em7 F#
variations - click chord images

Login - add to songbook

Transpose chords

Tuning

Rating click stars to rate

Layout
Accuracy

SHARE PAGE  




You need to log in to post comments