Guitar Tabs, Chords and Lyrics


Nature Of The Experiment   Tokyo Police Club



---------------------------------------------------------------------------------
			     Nature of the Experiment - Tokyo Police Club
---------------------------------------------------------------------------------
Tabbed by: Sean

Tuning: Standard

I believe this tab is at least 90% accurate. There may be some errors in the outro, but 
than that it's pretty close.

Intro
e|----12--------------|
B|----------14-15-14--|
G|-11----13-----------|  4x
D|--------------------|
A|--------------------|
E|--------------------|

Verse
e|----------17----17----16----16----14----14----|*14----14----14----14-----|
B|-14-17-14----14----14----14----14----14----14-|---14----14----14----14---|
G|----------------------------------------------|--------------------------|
D|----------------------------------------------|--------------------------|
A|----------------------------------------------|--------------------------|
E|----------------------------------------------|--------------------------|

Intro x2

Verse pt. 2
e|-17----17----16----16----14----14----14----14----14----14----14----14----|
B|----14----14----14----14----14----14----14----14----14----14----14----14-|
G|-------------------------------------------------------------------------|
D|-------------------------------------------------------------------------|
A|-------------------------------------------------------------------------|
E|-------------------------------------------------------------------------|

-14----14----|
----14----14-|
-------------|
-------------|
-------------|
-------------|

Intro x4
Verse (Replace section after * with: )

e|----14----14----14----14-|
B|-14----14----14----14----|
G|-------------------------|
D|-------------------------|
A|-------------------------|
E|-------------------------|

Intro x2
Verse pt. 2

e|-------------------------------------------------|
B|------7-7--9-9--10-10--9-9--7-7------------------|
G|-6-6-----------------------------7-7-------------|  8x
D|-------------------------------------------------|
A|-------------------------------------------------|
E|-------------------------------------------------|
 |                                                 |
e|-------15----------15----------------------14----|
B|-14----------14----------------14----15----------|
G|----13----13----13----13-14-13----13----13----13-|  3x
D|-------------------------------------------------|
A|-------------------------------------------------|
E|-------------------------------------------------|

Coda
e|-------15---------------------|
B|-14-------14----14-(let ring)-|
G|----13-------11---------------|
D|------------------------------|
A|------------------------------|
E|------------------------------|


| /  slide up
| \  slide down
| h  hammer-on
| p  pull-off
| ~  vibrato
| +  harmonic
| x  Mute note


Important: The song above is NOT stored on the Chordie server. The original song is hosted at www.guitaretab.com. Chordie works as a search engine and provides on-the-fly formatting. Chordie does not index songs against artists'/composers' will. To remove this song please click here.

This song is displayed as text-only. Transposing and tuning is only available for chordpro-songs.

Login - add to songbook

Rating click stars to rate

Layout
Accuracy

SHARE PAGE  




You need to log in to post comments