Guitar Tabs, Chords and Lyrics


Garys 55   Tom Breiding



-------------------------------------------------------------------------------
			     Gary's 55 - Tom Breiding
-------------------------------------------------------------------------------
Tabbed by: Zach Evans, with a considerable amount of help from Tom.
Email:zache57@suddenlink.net

Tuning: standard, capo 2nd fret

Intro/verse x10
e|---------------------------------------------------------------------------|
B|-----3-----3----------3-----3----------------------------------------------|
G|------------2----------------2---------------------------------------------|
D|---0-----0---0------0-----0---0--------------------------------------------|
A|-------------------2-----0-------------------------------------------------|
E|--2-----3------------------------------------------------------------------|


Play twice on the last time substitute the last group of notes with an A chord
e|---------------------------------------------------------------------------|
B|-----0--------3--------3--------2-0-2--------------------------------------|
G|------0--------2--------2------------2-------------------------------------|
D|---2---2-----2--2----0---0----2-------2------------------------------------|
A|--2---------2--------------------------------------------------------------|
E|-0---------2--------3------------------------------------------------------|

chorus x5

e|------|   G        Bm      A
B|-3----|
G|-0----|
D|-0----|
A|-0----|
E|-2----|



bridge x2
 
Bm     G       D     A




Chorus x5



Bridge x2



Solo over bridge
e|-2h5-5/9-9-9-12-12-9-9-5--2-5---2h5-5/9-9-12-12-9-9-5h9p5-2---2-5----------|
B|---------------------------3--------------------------------5--------------|
G|---------------------------------------------------------------------------|
D|---------------------------------------------------------------------------|
A|---------------------------------------------------------------------------|
E|---------------------------------------------------------------------------|


Intro/verse x 8


chorus x4


Then play x2

Em 	 B|-3----|     G        A
	 G|-0----|
	 D|-0----|
	 A|-0----|
	 E|-2----|


Chrous until end




| /  slide up
| \  slide down
| h  hammer-on
| p  pull-off
| ~  vibrato
| +  harmonic
| x  Mute note
===============================================================================


Important: The song above is NOT stored on the Chordie server. The original song is hosted at www.guitaretab.com. Chordie works as a search engine and provides on-the-fly formatting. Chordie does not index songs against artists'/composers' will. To remove this song please click here.

This song is displayed as text-only. Transposing and tuning is only available for chordpro-songs.

Login - add to songbook

Rating click stars to rate

Layout
Accuracy

SHARE PAGE  




You need to log in to post comments