I Wish You Well

Tom Cochrane

-------------------------------------------------------------------------------

-------------------------------------------------------------------------------
e|-------5----------5--------5--------5--------3--------3--------3--------3|
B|----3----------3--------3--------3--------3--------3--------3--------3---|
G|-------------------------------------------------------------------------|
D|-0----------0--------0--------0--------0--------0--------0--------0------|
A|-------------------------------------------------------------------------|
E|-------------------------------------------------------------------------|
e|-------5----------5--------5--------5--------3--------3--------0--------0--|
B|----3----------3--------3--------3--------3--------3--------2--------2-----|
G|---------------------------------------------------------------------------|
D|-0----------0--------0--------0--------0--------0--------------------------|
A|---------------------------------------------------------0-------0---------|
E|---------------------------------------------------------------------------|
e|---------------------------------------------------------------------------|
e|-------------------------------------------------------------------------|
B|-------------------------------------------------------------------------|
G|---2--0---------------------------2--0-----------------------------------|
D|---------4--2--0--2h4p2--0---------------4---2--4--0---------------------|
A|-------------------------------------------------------------------------|
E|-------------------------------------------------------------------------|

 EmG
And you might find a brighter day, You might find a brighter day.

(CHORUS)

D* G A

And in another year, the pain will disappear and I

D* G A

Will look back on this life as if it were a scene

Em G D*

In a film somebody made for you and me, I wish you well

(RIFF 3)

Verse 2:

D* G A

She wants to be set free, Wants the space to feel love and be angry,

D* G A

and I watch her bounce off the walls, While the chips they start to fall.

D* G A

And then in a little while I see, That distant smile returning

D* G A

Just like a ghost in a dream, that we had way back when

 EmG
Then she'll turn and smile and say, "Come again."

(CHORUS)

(BRIDGE)
 AGD
I cannot believe there's nothing left to save

 AEm
Hard as a hammer she wants me to come again and again

 GEmG
I'm down on my knees. Won't you come again. Don't you need relief?

(CHORUS)

| / slide up
| \ slide down
| h hammer-on
| p pull-off
| ~ vibrato
| + harmonic
| x Mute note
===============================================================================


A D Em G
variations - click chord images
Transpose chords:
Tuning:
Cool service:
View: Size:
A  A  A
Rating:
Layout:
  • Currently 2.5/5 Stars.
  • 1
  • 2
  • 3
  • 4
  • 5
 
Accuracy:
  • Currently 2.6/5 Stars.
  • 1
  • 2
  • 3
  • 4
  • 5
 
click stars to rate
Chordie recommends:
Get acoustic guitar lessons and electric guitar lessons at JamPlay.com
Songbook:
Login to add this song to your songbook
Support the artist
Preview/buy this song
MSN Music
Why this non-profit ad?

 
login to add comments/video/corrections