My Dogs Bigger Than Your Dog

Tom Paxton

 G
 My Dog?s Bigger Than Your Dog
 GD
 My Dog?s Bigger Than Your?s       
 GC
 My Dog?s Bigger and he chases Mailmen
 GDG
 My Dog?s Bigger Than Your?s     
--------------

 G
 My Dad?s Thougher Than Your Dad
 GD
 My Dad?s Thougher Than Your?s        
 GC
 My Dad?s Thougher and he can yell louder
 GDG
 My Dad?s Thougher Than Your?s.      
--------------

 CG
 I?m not afraid of the dark anymore
 DG
 I can tie my shoe  
 CG
 I have been to the country  
 CDG
 and I am goin to school.....NA!
--------------

instrumental
 G
 Our Car?s Faster Than Your Car
 GD
 Our Car?s Faster Than Your?s     
 GC
 It has a louder horn, It bumps other cars
 GDG
 Our Car?s Faster Than Your?s    
 GDG
 NA NA - NA NA NA - NA.........
--------------

 G
 My Mom?s older Than Your Mom
 GD
 My Mom?s older Than Your?s      
 GC
 She takes smelly baths, She hides the grey hairs
 GDG
 My Mom?s older Than Your?s.     
--------------

 CG
 I?m not afraid of the dark anymore
 DG
 I can tie my shoe  
 CG
 I have been to the country  
 CDG
 and I am goin to school  
 GDG
 NA NA - NA NA NA - NA.........

This is only part of the tab.. There is a very fast flat picked arrangement in the background. It is a
song and this part is a fairly easy finger picked arrangement. It is very popular with the kids.
 G
e|--------------------------------|
b|--0---0-------------------------|
g|-----------2^0-----------0------|
d|------0----------2--0-----------|
a|--------------------------------|
E|--3-----------------------------|

My Dog?s Bigger Than Your Dog
 GD
e|------------------------------|
b|--0---0-----------------------|
g|-----------2^0--------2-------|
d|------0----------2---0--------|
a|------------------------------|
E|--3---------------------------|

My Dog?s Bigger Than Your?s
 GC
e|--------------------------------------|
b|--0--0---------------1--1-------------|
g|-----------2^0---------------2^0------|
d|-----0-----------2------2--------2----|
a|---------------------3-----------3----|
E|--3-----------------------------------|

My Dog?s Bigger and he chases Mailmen
 GDG
e|-------------------------------------------|
b|--0---0------------------------------------|
g|-----------2^0--------0--------------------|
d|------0----------4--------2--0-------------|
a|---------------------------------2---------|
E|--3-------------------3--------------------|

My Dog?s Bigger Than Your?s


C D G
variations - click chord images
Transpose chords:
Tuning:
Cool service:
View: Size:
A  A  A
Rating:
Layout:
  • Currently 2.7/5 Stars.
  • 1
  • 2
  • 3
  • 4
  • 5
 
Accuracy:
  • Currently 3.1/5 Stars.
  • 1
  • 2
  • 3
  • 4
  • 5
 
click stars to rate
Chordie recommends:
Learn how to play guitar at JamPlay.com
Songbook:
Login to add this song to your songbook
Support the artist
Preview/buy this song
MSN Music
Why this non-profit ad?

 
login to add comments/video/corrections