Chordie logo


Last Dance With Maryjane   Tom Petty



***THIS IS FROM ANOTHER SITE BY COREY G. OF 911 TABS***

This song is actually written in Standard Tuning, however, prior to releasing it on the
they sped the tape up. This caused the album verison of the song to sound higher than it
recorded to fix any mistakes made during the recording session. To fix this mistakes 
simply tune your guitar up 1/4 step or slightly higher: Sharpen each standard tuned
to about +40 or even +60 to be more precise. And boom
you're now tuned up with Tom Petty. If you want the exact sound, BUY A VOX!

Guitar 1: Rythm (Tom Petty)
Guitar 2: Lead (Mike Campbell)


Intro:     Am     G     D     Am

---------------3---h2-2-2---------------------|
--h1-1-1-------3----3-3-3-----1---------------|
---2-2-2-----------h2-2-2-----2---------------|
---2-2-2-----------------------2--------------|   (x5)
-----------------------------0----------------|
------------3---------------------------------|


Verse:     Am     G     D     Am


The verse is the same as the Intro  (x8)


Chorus:     Em7     A     (x2)

Fill 1 (Mike Campbell)

-/-5-5-5-5-5-/--9--9--9--9--9-/----12---12---12--|
-/-5-5-5-5-5-/-10-10-10-10-10-/-14---14---14-----|
-/-6-6-6-6-6-/-----------------------------------|
-------------------------------------------------|
-------------------------------------------------|
-------------------------------------------------|

Fill 2 (Mike Campbell)

-----9---9--3--|
------------3--|
---9---9-------|
---------------|
------------2--|
------------3--|


Intro:    (x2)

Verse:    (x4)

Chorus    (x2)

Solo 1:(Tom Petty) Mike Campbell begged Tom Petty to play it so its choppy and sounds
There area lot of weird things that he throws into the basic solo I tabbed out so just
fun with the Am Pentatonic scale.

Am     G     D     Am is played below the solo by Mike Campbell.

--------------------------------------------------|
--------------------------------------------------|
--b7---5-7-b7---5---b7---5-7-b7----5--------------|
--b7-7-----b7-7---7-b7-7-----b7--7---7------------|
--------------------------------------------------|
--------------------------------------------------|

---5-5-5-5----5-5-5-5-----5-5-5----5-----5-----5-5-p8-5----5--------------|
b8---------b8----------b8--------8----b8----b8-----------8----8-5---------|
------------------------------------------------------------------7-5-b7-5|
------------------------------------------------------------------------7-|
--------------------------------------------------------------------------|
--------------------------------------------------------------------------|

Verse:     (x4)

Chorus:    (x2)

Intro:     (x2)



Important: The song above is NOT stored on the Chordie server. The original song is hosted at www.guitaretab.com. Chordie works as a search engine and provides on-the-fly formatting. Chordie does not index songs against artists/composers will. To remove this song please click here.

This song is displayed as text-only. Transposing and tuning is only available for chordpro-songs.

Login - add to songbook

Rating click stars to rate

Layout
Accuracy

SHARE PAGE  




You need to log in to post comments