Guitar Tabs, Chords and Lyrics


A Nocturnal Emission   Tom Waits



Playing pattern -- 

A B A C

E--------------------------------------------*
B--------------------------------------------*
G--------------------------------------------* 
D-----------------3---1------- 1---3---------*      A
A-------1---4-------------4------------------*
E---1----------------------------------------*

E--------------------------------------------*
B--------------------------------------------*
G--------------------------------------------*
D-----------------3---1------- --------------*    B
A-------1---4-------------4---3--------------*
E---1----------------------------------------*

E-----------------*
B-----------------*
G-----------------*
D-----------------*   C
A---4--------1----*


Important: The song above is NOT stored on the Chordie server. The original song is hosted at www.guitaretab.com. Chordie works as a search engine and provides on-the-fly formatting. Chordie does not index songs against artists'/composers' will. To remove this song please click here.

This song is displayed as text-only. Transposing and tuning is only available for chordpro-songs.

Login - add to songbook

Rating click stars to rate

Layout
Accuracy

SHARE PAGE  




You need to log in to post comments