Guitar Tabs, Chords and Lyrics


THIRD EYE   Tool


style="COLOR: #000000; FONT-SIZE: 11px;">Intro- These are just the cords, the timing isn't that difficult.
e|-8/15\11-10-----|(2:11)
B|-7/14\10-12-----|
G|-0/0-\0--0------|
D|----------------|
A|----------------|
D|----------------|
  Dreamimg of that face again....
e|----------------|(2:33)
B|----------------|
G|----------------|
D|-0--2-------0---|
A|------0--3-----0|
D|----------------|
 |-----p.m--------| (10x then slowly release palm mute for 10x.) 2x

e|----------------|(3:26)
B|----------------|
G|----------------|
D|-0--2-------0---|
A|------0--3-----0|
D|----------------| 15x

e|----------------|(3:52)
B|-10-xx--8--xx---|
G|-9--xx--7--xx---|
D|-7--xx--5--xx---|
A|-7--xx--5--xx---|
D|-7--xx--5--xx---|2x Once again listen to the song for the timing.

e|----------------|(4:06)
B|----------------|
G|-2--------------|
D|-0*-------------|
A|-0-X-X--X-------|
D|-0*-------------|(Scratch the A string)
  first solo
e|----------------------------------------------------------------|(4:20)
B|----------------------------------------------------------------|
G|----------------------------------------------------------------|
D|-7---5---5/10-12---12h13p12-10-3/5--5h7-7-7p5-5/10-12h13p12-10^-|
A|----------------------------------------------------------------|
D|----------------------------------------------------------------|

e|---------|(4:46)     e|------------------------|(4:59)
B|---------|           B|------------------------|
G|---------|           g|------------------------|
D|--12-10--|           D|-10h12p10h12p10h12p10\0-|
A|---------|           A|------------------------|
D|---------|           D|------------------------|
 |---p.m---|15x


e|---------------------------------------------------------------|(5:04)
B|---------------------------------------------------------------|
G|---------------------------------------------------------------|
D|-15p14-14-14h15p14/10-10-10h12-12/0--14-14h15-15-15/16-16/17-17|
A|---------------------------------------------------------------|
D|---------------------------------------------------------------|

Bunch of noise.
Then it comes back on this
e|-----------------------------------------------|(5:34)
B|-----------------------------------------------|
G|-----------------------------------------------|
D|-12-10-3/5-5h7-7-5-5/12-12h13p12---------------|
A|-----------------------------------12-----10---|
D|---------------------------------12--12-10--10-|

e|-------------------|    e|------|(6:01)
B|-------------------|    B|------|
G|-------------------|    G|--2---|
D|-0-----------------|    D|--0---|
A|-0----12-----10----|    A|--0---|
D|-0--12--12-10--10--|4x  D|------|30x


e|----------------------------|(6:36)
B|--------------------15------|
G|--------------------14--2-2-|
D|--12-12-12-12-12-12-12--0-0-|
A|--12-12-12-12-12-12-12--0-0-|
D|--12-12-12-12-12-12-12------| 4x

  A childs rythem stuck in my head.....
e|---------------------------|(6:54)
B|--------------------15-----|
G|--------------------14-----|
D|--12-12-12-12-12-12-12-----|
A|--12-12-12-12-12-12-12-----|
D|--12-12-12-12-12-12-12-----| 4x
                        |----| short break
  So good to see you, i've missed you so much....
e|----------------|(7:13)
D|----------------|
G|----------------|
D|-12--10\1p0-1/5-|
A|-12--10\1p0-1/5-|
D|-12--10\1p0-1/5-|10x
             |----| dont strum this, just press.
Short Break then drumbs come in.
  clean with reverb and a bit of delay,
although i my self added auto wah and sounds fairly exact.
e|-------|(8:06)
B|-3-4---|
G|-2-3---|
D|-------|
A|-------|
D|-------| listen to the song to get the timing.

Back to distortion.
   I've missed you so much......
e|-------------------------|   |--------------------------|(8:50)
B|10-10-10-10^--8-8-8-8^---|   |-10-10-10-10^--8-8-8------|
G|-9-9--9--9^---7-7-7-7^---|   |-9--9--9--9^---7-7-7-10^--|
D|-7-7--7--7^---5-5-5-5^---|   |-7--7--7--7^---5-5-5-12^--|
A|-7-7----------5-5--------|   |-7--7----------5-5--------|
D|-7------------5----------|   |-7-------------5----------|

  Came out to watch you play. Why are you running away?
e|------------------------------------------------------------|(9:07)
B|------------------------------------------------------------|
G|------------------------------------------------------------|
D|--7-9---5-7---7-9---5-7---7-9---5-7---5-7---3-5---5-7---3-5-|
A|--5-7-0-3-5-0-5-7-0-3-5-0-5-7-0-3-5-0-3-5-0-1-3-0-3-5-0-1-3-|
D|------------------------------------------------------------|
   Prying open my third eye.
e|---------------|(9:25)
B|---------------|
G|-2-2-2-2-2-2-2-|
D|-0-0-0-0-0-0-0-|
A|-0-0-0-0-0-0-0-|
D|-0*------------|4x

e|[------------]----------------|(9:57)
B|[------------]----------------|
G|[------------]----------------|
D|[-0-2-----0--]-0-2-0-2----0---|
A|[-----0-3---0]----0----0-3-0-3|
D|[------------]----------------|2x
  |------------| play this once then the second part, then play it 4x more.

e|--------------------------------------|(10:34)
B|-3*-----------------------------------|
G|-2*-----------------------------------|
D|-0----5--12--7--12--7--12--7--12--7---|
A|----0---------------------------------|
D|--------------------------------------|
  So good to see you once again, I thought that you were hiding.....
e|-------------|(10:47)
B|-10--10-10---|
G|-12--12-9----|
D|-0---0--0----|
A|-------------|
D|-------------|6x

  I open my eye
e|-------------|(11:01)
B|-------------|
G|-------------|
D|-7-9---5-7---|
A|-5-7-0-3-5-0-|
D|-------------|12x (note: theres a short break after the 8th time.)

e|-------------|    e|----------------|(11:34)
B|-------------|    B|----------------|
G|-------------|    G|----------------|
D|-0-2-----0---|    D|--7--9--12--7-0-|
A|-----0-3---0-|    A|--5--7--10--5-0-|
D|-------------|10x D|--------------0-|

Back to clean
e|--------------|(11:38)
B|-3/4/6\4------|
G|-2/3/5\3------|
D|--------------|
A|--------------|
D|--------------|3x
 |--------------| once again its a fast strum.

e|-----------------------------|(11:52)
B|-8/15\13/18\15-10^-10-10^-15-|
G|-7/14\12/17\14-12^-12-12^-12-|
D|-5/12\10/15\12---------------|
A|-----------------------------|
D|-----------------------------|
 |-----------------------------| Once again its a fast strum.

There is a solo next... you go ahead and figure it out.

e|------------|(12:18)
B|------------|
G|------------|
D|-7-9-10-12--|
A|-5-7-8--10--|
D|------------|4x



Important: The song above is NOT stored on the Chordie server. The original song is hosted at www.guitaretab.com. Chordie works as a search engine and provides on-the-fly formatting. Chordie does not index songs against artists/composers will. To remove this song please click here.

This song is displayed as text-only. Transposing and tuning is only available for chordpro-songs.

Login - add to songbook

Rating click stars to rate

Layout
Accuracy

SHARE PAGE  




You need to log in to post comments