Guitar Tabs, Chords and Lyrics


Gamera   Tortoise



-------------------------------------------------------------------------------
			     Gamera - Tortoise
-------------------------------------------------------------------------------
Tabbed by: Bryan
Email: wnsyipsp3@yahoo.com

Tuning: DADGBA: I like to play this in dropped D, even though that string isn't 
to use in the intro, it is nice for letting it ring.

e|---------------------------------0----------------------------------------------------|
B|-----------------10-----12p10-------10------------------------------------------------|
G|----------11--------------------------------------------------------------------------|
D|-----7/9------0------0--------0-------------------------------------------------------|
A|--9-----------------------------------------------------------------------------------|
E|--------------------------------------------------------------------------------------|

e|-------------------------------------------------------------------------------------|
B|-----------------------10------------------------------------------------------------|
G|----------11-----9---------9-----11-----11-------------------------------------------|
D|-----7/9------0-----0---------0------0-----------------------------------------------|
A|--9----------------------------------------------------------------------------------|
E|-------------------------------------------------------------------------------------|

The above is played 2x

e|----------------------------------------------------------------------------------|
B|-------------0---------0---------------------------0--------0---------------------|
G|-----11\9\7-----7---------0-----2-2--------11\9\7-----7-------0----2--------------|
D|--0-----------------0--------0----------0----------------0------0-----------------|
A|----------------------------------------------------------------------------------|
E|----------------------------------------------------------------------------------|

e|--------------------------------12--14---------------------------------|
B|------------7/10-----12p10---------------------------------------------|
G|-----4\7p0-------------------------------2p0--h6/7-----7-7---7-7---77--|
D|--0---------------0---------0-----------------------0------0-----0-----|
A|-----------------------------------------------------------------------|
E|-----------------------------------------------------------------------|

The rest of the intro is just variations on these previous riffs with the bass added.
Enjoy!

| /  slide up
| \  slide down
| h  hammer-on
| p  pull-off
| ~  vibrato
| +  harmonic
| x  Mute note


Important: The song above is NOT stored on the Chordie server. The original song is hosted at www.guitaretab.com. Chordie works as a search engine and provides on-the-fly formatting. Chordie does not index songs against artists'/composers' will. To remove this song please click here.

This song is displayed as text-only. Transposing and tuning is only available for chordpro-songs.

Login - add to songbook

Rating click stars to rate

Layout
Accuracy

SHARE PAGE  




You need to log in to post comments