Chordie logo


Multiple Counts Of Murder   Torture Killer



Torture Killer: Multiple Counts Of Murder 

E----------------------------------|
B----------------------------------|
G----------------------------------|
D----------------------------------|    8X
A----------------------------------|
D--0--1-1--0--1--0--4-4-1--0--1--0-|

E------------------------------|
B------------------------------|
G------------------------------|
D------------------------------|     8X
A------------------------------|
D--3-3-3-4-4-4-3-3-3-1-1-0-0-1-|

PLAY /\ again


Gtr.1
E--------------------------------------------------|
B--------------------------------------------------|
G--------------------------------------------------|
D--6--6--6--6--5--5--5--5--3--3--3--3--3--3--3--3--|     4X
A--------------------------------------------------|
D--------------------------------------------------|

Gtr.2
E------------------------------------------|
B------------------------------------------|
G------------------------------------------|
D--3------------------0-----------------1--|   4X
A--3------------------0---------------0-1--|
D--3------------------0---------------0-1--|
Pm                                    .   

Gtr.1 solo

Gtr.2
E-------------------------------------------|
B-------------------------------------------|
G-------------------------------------------|
D-------------------------------------------|
A-------------------------------------------|
D--1--0--1--0--1--0--1--3--1--3--1--3--1--3-|

E-------------------------------------------|
B-------------------------------------------|
G-------------------------------------------|
D-------------------------------------------|
A-------------------------------------------|
D--1--0--1--0--1--0--1--1---0-------3---1---|

Gtr.1
E----------------------------------|
B----------------------------------|
G----------------------------------|
D--20-x-20-19-x-19-17-x-17-19-x-17-|     8X
A----------------------------------|
D----------------------------------|

Gtr.2
E-----------------------------------|
B-----------------------------------|
G-----------------------------------|
D--0-------------3------------------|   4X
A--0-------------3-----------4--1---|
D--0-------------3-----------4--1---|

Gtr.1
E--------------------------------------------------|
B--------------------------------------------------|
G--------------------------------------------------|
D--6--6--6--6--5--5--5--5--3--3--3--3--3--3--3--3--|     4X
A--------------------------------------------------|
D--------------------------------------------------|

Gtr.2
E------------------------------------------|
B------------------------------------------|
G------------------------------------------|
D--3------------------0-----------------1--|   4X
A--3------------------0---------------0-1--|
D--3------------------0---------------0-1--|
Pm                                    .   

Gtr.1
E--------------------------------------------------|
B--------------------------------------------------|
G--------------------------------------------------|
D--6--6--6--6--5--5--5--5--3--3--3--3--3--3--3--3--|     8X
A--------------------------------------------------|
D--------------------------------------------------|

Gtr.2
E--------------------------------------------------|
B--------------------------------------------------|
G--------------------------------------------------|
D--------------------------------------------------|   8X
A--3--3--3--3--3--3--3--3--0--0--0--0--0--0--0--1--|
D--3--3--3--3--3--3--3--3--0--0--0--0--0--0--0--1--|
Pm.                                          .

Both
E------|
B------|
G------|
D--0---|
A--0---|
D--0---|


Important: The song above is NOT stored on the Chordie server. The original song is hosted at www.guitaretab.com. Chordie works as a search engine and provides on-the-fly formatting. Chordie does not index songs against artists/composers will. To remove this song please click here.

This song is displayed as text-only. Transposing and tuning is only available for chordpro-songs.

Login - add to songbook

Rating click stars to rate

Layout
Accuracy

SHARE PAGE  




You need to log in to post comments