Chordie logo

Babylon   Total Chaos



Total Chaos : Babylon

Verse:1
e|-------------------------------------------------------------------|
B|-------------------------------------------------------------------|
G|-------------------------------------------------------------------|
D|----77x77-10-9-7--55x55-10-9-7--77x77-10-9-7--55x55-10-9-7---------|
A|----77x77-10-9-7--55x55-10-9-7--77x77-10-9-7--55x55-10-9-7---------|
E|----55x55--8-7-5--33x33--8-7-5--55x55--8-7-5--33x33- 8-7-5---------|

Verse:2
e|-------------------------------------------------------------------|
B|-------------------------------------------------------------------|
G|-------------------------------------------------------------------|
D|-------------------------------------------------------------------|
A|----7777-10-9-7--5555-7-7--7777-10-9-7--5555-7-7-------------------|
E|----5555-18-7-5--3333-5-5--5555--8-7-5--3333-5-5-------------------|

Solo
e|-------------------------------------------------------------------|
B|-------------------7h8h7h8h7h8h7p8--10b--11b11---------------------|
G|-7-7b7b-7-10-9-7b7-------------------------------------------------|2x
D|-------------------------------------------------------------------|
A|-------------------------------------------------------------------|
E|-------------------------------------------------------------------|

e|----------------------------------------------------------17-------|
B|-13h14-13h14---1314131413141314----14b---16--1616-16b-1616---------|
G|-------------------------------13--14b---16b-1616-16b-1616--16b-16b|
D|-------------------------------------------------------------------|
A|-------------------------------------------------------------------|
E|-------------------------------------------------------------------|

e|-----------------------------------7b--10-9---------7-7------------|
B|---16b-151514141313---12-12b-/-9b--7b--10-9--9b/-5--7-7------------|
G|---16b-151514141313-12b--------------------------------------------|
D|-------------------------------------------------------------------|
A|-------------------------------------------------------------------|
E|-------------------------------------------------------------------|
solo is the version of early years 89-93 album





Important: The song above is NOT stored on the Chordie server. The original song is hosted at www.guitaretab.com. Chordie works as a search engine and provides on-the-fly formatting. Chordie does not index songs against artists/composers will. To remove this song please click here.

This song is displayed as text-only. Transposing and tuning is only available for chordpro-songs.

Login - add to songbook

Rating click stars to rate

Layout
Accuracy

SHARE PAGE  

You need to log in to post comments