eToCache5 = ""; ?> Alles Aus Liebe by Die Toten Hosen - guitar chords, guitar tabs and lyrics - chordie

Alles Aus Liebe

Die Toten Hosen

-----------------------------------------------------


 CAmFGG7
|-----------------------------------------------------1----------1----------3-----------1-------|
|--1---------1----------------1--------1------------------1----------1----------0----------0----|
|------0---------0---------------2--------2-------------2----------2----------0----------0------|
|----2---------2---------------2--------2-------------------------------------------------------|
|-3--------3---------3-2----0--------0--------0-------------------------------------------------|
|------------------------------------------------3--1--------1-1-------1--3--------3------------|


 CAmFG
Ich würde dir gern sagen, wie sehr ich Dich mag   Warum ich nur noch an Dich denken kann
Ich fühl´ mich wie verhext und in Gefangenschaft Und Du allein trägst Schuld daran
 AmFGE
Worte sind dafür zu schwach  Ich befürchte Du glaubst mir nicht
 AmFG
Mir kommt es vor als ob mich jemand warnt:  Dieses Märchen wird nicht gut ausgehn
 CAmFG
Es ist die Eifersucht, die mich auffrisst Immer dann, wenn Du nicht in meiner Nähe bist
Von Dr. Jekyll werd´ ich zu Mr. Hyde Ich kann nichts dagegen tun, plötzlich ist es so weit

R#1: A|-----------------------------------2--------------------------------2-2-2-2-2-3-3-3-3-3--5-7-----|
     E|-5b--5b--1b--1b--3b--3b-----0--3-5--3-0----5b--5b--1b--1b-3-3-3-3-3------------------------------| 


 AmFGE
R#1: Ich bin kurz davor, durchzudreh´n   Aus Angst dich zu verliern
 AmFG
Und daß und jetzt kein Unglück geschieht  Dafür kann ich nicht garantier´n
Chorus
 CEAmGCFG
Und alles nur, weil ich dich liebe     und ich nicht weiß wie ich´s beweisen soll
 CEAmFGC
Komm ich zeig dir wie groß meine Liebe ist   Und bringe mich für dich um.

 CAmFG
Sobald deine Laune etwas schlechter ist  Bild´ ich mir gleich ein, daß Du mich nicht
mehr willst Ich sterbe beim Gedanken daran, Daß ich Dich nicht für immer halten kann
R#1:Am F G E
Auf einmal brennt ein Feuer in mir Und der Rest der Welt wird schwarz
 AmFG
Ich spür wie unsere Zeit verrinnt,    Wir nähern uns dem letzten Akt

Chorus
 CEAmGCFG
Und alles nur, weil ich dich liebe     und ich nicht weiß wie ich´s beweisen soll
 CEAmFGC
Komm ich zeig dir wie groß meine Liebe ist   Und bringe mich für dich um.
Solo:
< 3x >| |< 3x >|
e|---------------------------------------------------------------------|
B|-/13...13-----------/15...15-- ---/17...17------------/20...20-------|
G|---------------------------------------------------------------------|
D|----------10-10----------------------------19-19---------------------|
A|---------------12--------------------------------19------------------|
E|---------------------------------------------------------------------|


R#1: Am F G E
Ich bin kurz davor, durchzudreh´n Aus Angst dich zu verliern
 AmFG
Und daß und jetzt kein Unglück geschieht  Dafür kann ich nicht garantier´n

2x: C E Am G C F G
Und alles nur, weil ich dich liebe und ich nicht weiß wie ich´s beweisen soll
 CEAmFGC
Komm ich zeig dir wie groß meine Liebe ist   Und bringe mich für dich um.

 CEAmF
Komm ich zeig dir wie groß meine Liebe ist
 GC
Und bringe uns beide um

Am C E F G G7
variations - click chord images
Transpose chords:
Tuning:
Cool service:
View: Size:
A  A  A
Rating:
Layout:
  • Currently 2.6/5 Stars.
  • 1
  • 2
  • 3
  • 4
  • 5
 
Accuracy:
  • Currently 2.8/5 Stars.
  • 1
  • 2
  • 3
  • 4
  • 5
 
click stars to rate
Chordie recommends:
Get acoustic guitar lessons and electric guitar lessons at JamPlay.com
Songbook:
Login to add this song to your songbook
Support the artist
Preview/buy this song
MSN Music
Why this non-profit ad?

 
login to add comments/video/corrections