Guitar Tabs, Chords and Lyrics


Alles Aus Liebe2  Die Toten Hosen

    [C]                                                    
E ||--------------------------------------------|
B ||-----1--------------------1-----------------|
G ||------------0--------------------0----------|
D ||--------2---------2----------2--------------|
A ||-3--------------------3--------------3--2---|
E ||--------------------------------------------|

    [Am]                                                   
E ||--------------------------------------------|
B ||-----1--------------------1-----------------|
G ||------------2--------------------2----------|
D ||--------2---------2----------2--------------|
A ||-0--------------------0---------------------|
E ||-------------------------------------5--0---|

    [F]                                                   
E ||-----1--------------------1----------------|
B ||------------1--------------------1---------|
G ||-------------------------------------------|
D ||--------3---------3----------3-------------|
A ||-------------------------------------------|
E ||-1--------------------1----------------5---|

    [G]                                                   
E ||-----3--------------------1-----------------|
B ||------------0--------------------0----------|
G ||--------0---------0----------0--------------|
D ||--------------------------------------------|
A ||-------------------------------------0--2---|
E ||-3--------------------3---------------------|

[C]Ich w?rde dir gern sagen, wie [Am]sehr ich Dich mag
War[F]um ich nur noch an Dich [G]denken kann
Ich [C]f?hl? mich wie verhext und in Ge[Am]fangenschaft
Und [F]Du allein tr?gst [G]Schuld daran
[Am]Worte sind da[F]f?r zu schwach
Ich be[G]f?rchte Du glaubst mir [E]nicht
Mir kommt es [Am]vor als ob mich je[F]mand warnt:
Dieses [G]M?rchen wird nicht gut ausgehn
Es ist die [C]Eifersucht, die m[Am]ich auffri?t
Immer [F]dann, wenn Du nicht in meiner [G]N?he bist
Von [C]Dr. Jekyll werd? ich zu [Am]Mr. Hyde
Ich kann [F]nichts dagegen tun, pl?tzlich [G]ist es so weit
Ich bin [Am]kurz davor, [F]durchzudreh?n
Aus [G]Angst dich zu ver[E]liern
Und da? [Am]und jetzt kein Ungl?ck geschieh[F]t
Daf?r [G]kann ich nicht garantier?n
Und alles [C]nur[E], weil ich dich [Am]liebe[G]
und ich nicht [C]wei? wie ich?s bew[F]eisen [G]soll
Komm ich [C]zeig dir wir [E]gro? meine [Am]Liebe [F]ist
Und [G]bringe mich f?r dich [C]um.
So[C]bald deine Laune etwas [Am]schlechter ist
[F]Bild? ich mir gleich ein, da? Du mich [G]nicht mehr willst
Ich [C]sterbe beim Ge[Am]danken daran,
Da? [F]ich Dich nicht f?r immer [G]halten kann
Auf [Am]einmal brennt ein [F]Feuer in mir
Und der [G]Rest der Welt wird [E]schwarz
Ich [Am]sp?r wie unsere [F]Zeit verrinnt,
Wir [G]n?hern uns dem letzten Akt
Und alles [C]nur[E], weil ich dich [Am]liebe[G]
und ich nicht [C]wei? wie ich?s bew[F]eisen [G]soll
Komm ich [C]zeig dir wir [E]gro? meine [Am]Liebe [F]ist
Und [G]bringe mich f?r dich [C]um.
Solo
E |--------------------------------8---|
B |-1----------------3-------------8---|
G |-0----------------0-----------------|
D |------------------------------------|
A |------------------------------------|
E |------------------------------------|
|-8---8--8---8---8--------------------8---|
|-8---8--8---8---8--------------------8---|
|-------------------5---5-----------------|
|-------------------5---5-----------------|
|-----------------------------------------|
|-----------------------------------------|
|-8---8--8---8---8--------------------8---|
|-8---8--8---8---8--------------------6---|
|-------------------5---5-----------------|
|-------------------5---5-----------------|
|-----------------------------------------|
|-----------------------------------------|
|-8---8--8---8---8--------------------8---|
|-6---6--6---6---6--------------------6---|
|-------------------5---5-----------------|
|-------------------3---3-----------------|
|-----------------------------------------|
|-----------------------------------------|
|-3---3--3---3---3--3---3---7--7---7b---7--12---|
|-3---3--3---3---3--3---3---3--3---3b---3--8----|
|-----------------------------------------------|
|-----------------------------------------------|
|-----------------------------------------------|
|-----------------------------------------------|
|-12---12--12---12---12--8---8-------------12---|
|-8----8---8----8----8---------------------10---|
|------------------------9---9------------------|
|-----------------------------------------------|
|-----------------------------------------------|
|-----------------------------------------------|
|-12---12--12---12---12--0----0--------------12---|
|-10---10--10---10---10--10---10------------------|
|--------------------------------------------10---|
|-------------------------------------------------|
|-------------------------------------------------|
|-------------------------------------------------|
|-12---12--12v---12---12v------------------------7---|
|--------------------------10v---10v-------------8---|
|-10---10--10v---10---10v--10v---10v-----------------|
|----------------------------------------------------|
|----------------------------------------------------|
|----------------------------------------------------|
|-7---7--7---7---7--7---7b---7--7---7b---7------|
|-8---8--8---8---8--8---3b---3--3---3b---3--3---|
|-------------------------------------------0---|
|-----------------------------------------------|
|-----------------------------------------------|
|-----------------------------------------------|
|-5--------||
|----------||
|----------||
|-7--------||
|----------||
|----------||

Ich bin [Am]kurz davor, [F]durchzudreh?n
Aus [G]Angst dich zu ver[E]lier?n
Und [Am]da? und jetzt kein [F]Ungl?ck geschieht
Daf?r [G]kann ich nicht garantier?n
Und alles [C]nur[E], weil ich dich [Am]liebe[G]
und ich nicht [C]wei? wie ich?s bew[F]eisen [G]soll
Komm ich [C]zeig dir wir [E]gro? meine [Am]Liebe [F]ist
Und [G]bringe mich f?r dich [C]um.
Und alles [C]nur[E], weil ich dich [Am]liebe[G]
und ich nicht [C]wei? wie ich?s bew[F]eisen [G]soll
Komm ich [C]zeig dir wir [E]gro? meine [Am]Liebe [F]ist
Und [G]bringe mich f?r dich [C]um.
Komm ich [C]zeig dir wir [E]gro? meine [Am]Liebe [F]ist
Und [G]bringe mich f?r dich [C]um.

Important: The song above is NOT stored on the Chordie server. The original song is hosted at www.guitaretab.com. Chordie works as a search engine and provides on-the-fly formatting. Chordie does not index songs against artists'/composers' will. To remove this song please click here.

Text color:
Chord color:
Chord grids: 
Font size:    
Page size: 

Am C E F G
variations - click chord images

Login - add to songbook

Transpose chords

Tuning

Rating click stars to rate

Layout
Accuracy

SHARE PAGE  




You need to log in to post comments